Misc Soundtrack - The Sweeney Theme Chords & Tabs

 

The Sweeney Theme Chords & Tabs

Misc Soundtrack Chords & Tabs

Version: 1 Type: Tab

The Sweeney Theme Tab

The Sweeney (TV show opening theme)
Music by Harry South.  Melody very similar to a motif from a Miles Davies 
song i believe.
Transcribed by DrBlodski

This is my first tab so it may look weird - please forgive. I have fun 
playing along to the youtube vid of this.  It sounds note for note 
correct to me and is midway up the fretboard for easy bending if you 
wanna bend into the 7ths

comments: drblodski@yahoo.com

Intro
Fast up tempo jazzy swingy  Q=110approx
funk rock sound, or octaver or and phaser wah wah go mad.  bend into the 
accented notes
4/4
Gtr I - arranged from horns.
Key 'Blues' F
i cant do tempo very well - listen well to Tv version to get timings


|--------------------------------|--------------------------------|
|--------------------------------|--------------------------------|
|-8------------------------------|-7------------------------------|
|--------------------------------|--------------------------------|
|--------------------------------|--------------------------------|
|--------------------------------|--------------------------------|
	



|--------------------------------|--------------------------------|
|--------------------------------|--------------------------------|
|-6------------------------------|-5------------------------------|
|--------------------------------|----------------------9----8----|
|--------------------------------|--------------------------------|
|--------------------------------|--------------------------------|




|--------------------------------|--------------------------------|
|----7---------------------------|----11--9-----------------------|
|-------8------------------------|--------------------------------|
|-8------------------------------|-8------------------------------|
|--------------------------------|--------------------------------|
|--------------------------------|--------------------------------|




|--------------------------------|--------------------------------|
|-7--7-----7--(9)11--------------|-----9-----7--9-----------------|
|-------8------------------------|--------8-----------------------|
|--------------------------------|--------------------------------|
|--------------------------------|--------------------------------|
|--------------------------------|--------------------------------|
	       bend


[ Tab from: http://www.guitartabs.cc/tabs/m/misc_soundtrack/the_sweeney_theme_tab.html ]
|--------------------------------|--------------------------------|
|----7---------------------------|----11--9-----------------------|
|-------8------------------------|--------------------------------|
|-8------------------------------|-8------------------------------|
|--------------------------------|--------------------------------|
|--------------------------------|--------------------------------|




|--------------------------------|--------------------------------|
|--11----11-10-11--13------------|--------------------------------|
|--------------------------------|---10--10--11--10---------------|
|--------------------------------|--------------------------------|
|--------------------------------|--------------------------------|
|--------------------------------|--------------------------------|






|--------------------------------|--------------------------------|
|--------------------------------|--------------------------------|
|--------------10----------------|--------------10----------------|
|--11--10--8---------------------|--11-11-10-8--------------------|
|--------------------------------|--------------------------------|
|--------------------------------|--------------------------------|




|--------------------------------|--------------------------------|
|--------------------------------|--------------------------------|
|--8------6--8-------------------|--10--10--9--10--12-------------|
|-----8--------------------------|--------------------------------|
|--------------------------------|--------------------------------|
|--------------------------------|--------------------------------|




|--------------------------------|--------------------------------|
|--------------------------------|---9-------13--11---------------|
|--------------------------------|------10------------------------|
|--10--10--11--10----------------|--------------------------------|
|--------------------------------|--------------------------------|
|--------------------------------|--------------------------------|




|--------------------------------|--------------------------------|
|--------------------------------|--------------------------------|
|--------------------------------|--------------------------------|
|--------------------------------|--------------------------------|
|--------------------------------|--------------------------------|
|--------------------------------|--------------------------------|