Misc Soundtrack - The Great Escape Theme Chords & Tabs

 

The Great Escape Theme Chords & Tabs

Misc Soundtrack Chords & Tabs

Version: 2 Type: Tab 0 ratings
1 star 2 stars 3 stars 4 stars 5 stars
comments

The Great Escape Theme Tab

The Great Escape - Main theme
Tabbed by - Big V
v1nnyy2k@hotmail.com
    
   The bass is a little dodgy but i dont play bass,
any changes? just add 'em.
[ Tab from: http://www.guitartabs.cc/tabs/m/misc_soundtrack/the_great_escape_theme_tab_ver_2.html ]
e|---------------------------------------------------------------------
B|---------------------------------------------------------------------
G|---------------------------------------------------------------------
D|-------7-5------5-5--------------------------7-5------5-5-------5----
A|---8-------8-5-----8-7-8-7-5-3-0---------8-------8-5-----8-7-3---8---
E|-8---8---------------------------5-6-7-8---8-------------------------

Bass:

G|------------
D|------------
A|------------
E|-1-2-1--3-2-
Comments