Misc Soundtrack - The Good The Bad And The Ugly Chords & Tabs

 

Misc Soundtrack Chords & Tabs

Version: 1 Type: Tab 2 ratings
1 star 2 stars 3 stars 4 stars 5 stars
comments

The Good The Bad And The Ugly Tab

   
Song: The Good, The Bad & The Ugly theme
Band: N/A
Tabbed by: SpRiNgWaFfLe [springwaffle@comcast.net]

e----10----10-------------------10----10------------8-
b-10----10----10---6--8------10----10----10---6--8----
g------------------------7----------------------------
d-----------------------------------------------------
a-----------------------------------------------------
e-----------------------------------------------------

e----10----10-10---/13-12-10---------10----10-------------
b-10----10-------------------13---10----10----10---/8-----
g-----------------------------------------------------7-7-
d---------------------------------------------------------
a---------------------------------------------------------
e---------------------------------------------------------
[ Tab from: http://www.guitartabs.cc/tabs/m/misc_soundtrack/the_good_the_bad_and_the_ugly_tab.html ]
          x2
e-----------|-------------------3---5-
b-----------|--------------5--1-------
g-----2---5-|-----2---5--2------------
d---0---3---|---0---3-----------------
a-0---------|-0-----------------------
e-----------|-------------------------

            x2
e-1p0----3----|-1p0---3---1p0---3---
b-----3-----3-|-----3---3-----3---3-
g-------------|---------------------
d-------------|---------------------
a-------------|---------------------
e-------------|---------------------

e-1p0---0---------------------------------
b-----3---1-3p1p0-1-----------------------
g-------------------2-4p2p0-2---0---------
d-----------------------------3---3p2-3-0-
a-----------------------------------------
e-----------------------------------------

e---------------------------
b---------------------------
g---------------------------
d-6------------7------------
a-6------------7------------
e-4------------5------------
Comments