Misc Soundtrack - The Godfather Theme Correct Chords & Tabs

 

The Godfather Theme Correct Chords & Tabs

Misc Soundtrack Chords & Tabs

Version: 1 Type: Tab 1 rating
1 star 2 stars 3 stars 4 stars 5 stars
comments

The Godfather Theme Correct Tab

Song: THE GODFATHER THEME
By: HENRY MANCINI
TABBED BY: NOAH MENDOZA
(any comments please e-mail me at cajmendoza@sbcglobal.net THANK YOU!)

e--9--8-9-10--9-9-----9--8-9-10--9-9-----9--8-9-12--9-8--11-9-----------------
B----------------10------------------9------------------------10-9-10-14--10-9


e--9--8-9-10--9-9-----9--8-9-10--9-9-----9--8-9-12~~~~~~~
B----------------10------------------9-------------------


e----------------------------------------------------------------
B--3--2-3-4--3-3----3--2-3-4--3-3----3--2-3-6--3-2--5-3
G----------------3----------------2----------------------3-2-3-7--3-2~~~


e-----------------12-13~~~~~~13-12--------------
B--------12-14-15------------------15-14---15-15
G--14-------------------------------------------

[ Tab from: http://www.guitartabs.cc/tabs/m/misc_soundtrack/the_godfather_theme_correct_tab.html ]
e---------------------------------------------------------------------
B--16p15-14-15---16p15-14-15---16p15-14-15-16-15-13-------------------
G---------------------------------------------------15-14-12-11--12-14


e------------------------------------------13-12----------------------
B--16p15-14-15---16p15-14-15---16p15-14-15-------15-13-12-------------
G---------------------------------------------------------14-13--14-14


e--15--14-15-16--15-15-----15-14-15-16--15-15-----15--14-15-18--15-14--17-15
B----------------------16---------------------15----------------------------
G---------------------------------------------------------------------------


e-----------15-14----------------15-17-18---18-17-15----15-15~~~~~
B--16-15-16-------15~~~~15--17-19---------------------19-----------
G-----------------------------------------------------------------

well thats all and i think its a really nice easy song and the only way
It could be any simpler is if i went to your home and taught it to you.
Good-Bye and Have Fun



Comments