Misc Soundtrack - The Crow Solo Chords & Tabs

 

The Crow Solo Chords & Tabs

Misc Soundtrack Chords & Tabs

Version: 1 Type: Tab 0 ratings
1 star 2 stars 3 stars 4 stars 5 stars
comments

The Crow Solo Tab

This is the solo to the 1rst crow movie I hope you like it.



---------------------------------------------------------------------
---------------------------------------------------------------------
-----15^-15~~~-13~~ 12~~-15^-10~~-12^ 15-8~~-10~~-15~~-6~~-10~~-------
---------------------------------------------------------------------
---------------------------------------------------------------------
---------------------------------------------------------------------
[ Tab from: http://www.guitartabs.cc/tabs/m/misc_soundtrack/the_crow_solo_tab.html ]
--0-3-0-/0-5-0/0-3-0/0-7-0/0-8-0/0-7-0/0-5-0/0-3-0-------------------
---------------------------------------------------------------------
---------------------------------------------------------------------
---------------------------------------------------------------------
---------------------------------------------------------------------
---------------------------------------------------------------------
play this riff 2 times
---------------------------------------------------------------------
---------------------------------------------------------------------
-----5---5--5---7------7--7---9----9-----------------------------------------
----5---5--5---7------7--7---9----9------------------------------------------
---3---3--3---5------5--5---7----7-------------------------------------------
-------------------------------0---------------------------------------
Comments