Misc Soundtrack - The Crow - Eric Dravens Roof Top Chords & Tabs

 

The Crow - Eric Dravens Roof Top Chords & Tabs

Misc Soundtrack Chords & Tabs

Version: 1 Type: Tab 0 ratings
1 star 2 stars 3 stars 4 stars 5 stars
comments

The Crow - Eric Dravens Roof Top Tab

   
-----------------------------------------------------------------------------
			     The Crow:Eric Draven's Roof Top Solo
-----------------------------------------------------------------------------
Tabbed by:Juliano
Email:Slayer666691@aol.com

Tuning:Standard

e|-5/7---5------------5-------------3-------3/5------------------------------|
B|-----------8--7-------5-----7-------3-----------5\1-----3/5----------------|
G|---------------------------------------------------------------------------|
D|---------------------------------------------------------------------------|
A|---------------------------------------------------------------------------|
E|---------------------------------------------------------------------------|

e|-0----0-3-0-----0-5-0---0-7-0--0-8-0---0-7-0----0-5-0--0-3-0---------------|
B|---------------------------------------------------------------------------|
G|---------------------------------------------------------------------------|
D|---------------------------------------------------------------------------|
A|---------------------------------------------------------------------------|
E|---------------------------------------------------------------------------|

e|---------------------------------------------------------------------------|
B|---------------------------------------------------------------------------|
G|-5---5/7---7/9-------------------------------------------------------------|
D|-5---5/7---7/9------------------------[ x2 ]-------------------------------|
A|-3-3-3/5-5-5/7-------------------------------------------------------------|
E|---------------0-0-0-0-0-0-0-0---------------------------------------------|
[ Tab from: http://www.guitartabs.cc/tabs/m/misc_soundtrack/the_crow_eric_dravens_roof_top_tab.html ]
e|---------------------------------------------------------------------------|
B|-------------------------------------------------------3-5-3-5-3-5-3-5-3-5-|
G|-------------------------------2-4-2-4-2-4-2-4-2-4-2-4---------------------|
D|-2-5-2-5-2-5-2-5-2-5-2-5-2-5-----------------------------------------------|
A|---------------------------------------------------------------------------|
E|---------------------------------------------------------------------------|
  speed picking

e|-5-7-5-7-5-7-5-7-5-7-5-7----10-12-10-12-10-12-10-12-10-12-10-12------------|
B|---------------------------------------------------------------------------|
G|---------------------------------------------------------------------------|
D|---------------------------------------------------------------------------|
A|---------------------------------------------------------------------------|
E|---------------------------------------------------------------------------|

e|-12-15-12-15-12-15-12-15-12-15-12-15---------------------------------------|
B|----------------------------------------10~~~~~~~--------------------------|
G|---------------------------------------------------------------------------|
D|---------------------------------------------------------------------------|
A|---------------------------------------------------------------------------|
E|---------------------------------------------------------------------------|
i guessed on the rythm of the speed picking part so just figure it out on your own. its 
that hard.

| /  slide up
| \  slide down
| h  hammer-on
| p  pull-off
| ~  vibrato
| +  harmonic
| x  Mute note
=============================================================================
Comments