Misc Soundtrack - Terminator Theme Chords & Tabs

 

Terminator Theme Chords & Tabs

Misc Soundtrack Chords & Tabs

Version: 7 Type: Tab 0 ratings
1 star 2 stars 3 stars 4 stars 5 stars
comments

Terminator Theme Tab

-------------------------------------------------------------------------------
			     Terminater Theme - Misc Soundtrack
-------------------------------------------------------------------------------
Tabbed by: Ori
Email: mullet139@hotmail.com

Tuning: Standard

e|--------------------------------------------------12--10-------------------|
B|10--12--13--12--------------10--12--13--12---------------------------------|
G|----------------12--------------------------12-----------------------------|
D|----------------------10---------------------------------------------------|
A|---------------------------------------------------------------------------|
E|---------------------------------------------------------------------------|

e|---------------------------------------------------------------------------|
B|10--12--13--12-------------------------------------------------------------|
G|----------------12---------------------------------------------------------|
D|----------------------10-----7--9--10--9--7--------------------------------| 
A|---------------------------------------------------------------------------| 
E|---------------------------------------------------------------------------|
[ Tab from: http://www.guitartabs.cc/tabs/m/misc_soundtrack/terminator_theme_tab_ver_7.html ]
e|---------------------------------------------------------------------------|
B|---7--7-x-7----------------------------------------------------------------|
G|---7--7-x-7----------------------------------------------------------------|
D|7--------------------------------------------------------------------------| (Pick up speed)
A|---------------------------------------------------------------------------| X 4
E|---------------------------------------------------------------------------|

e|--------------------------------------------------12--10-------------------|
B|10--12--13--12--------------10--12--13--12---------------------------------|
G|----------------12--------------------------12-----------------------------|
D|----------------------10---------------------------------------------------| (Play faster than first time)
A|---------------------------------------------------------------------------|
E|---------------------------------------------------------------------------|

e|---------------------------------------------------------------------------|
B|10--12--13--12-------------------------------------------------------------|
G|----------------12---------------------------------------------------------|
D|----------------------10-----7--9--10--9--7--------------------------------| (continue speed)
A|---------------------------------------------------------------------------|
E|---------------------------------------------------------------------------|
Comments