Misc Soundtrack - Terminator Theme Chords & Tabs

 

Terminator Theme Chords & Tabs

Misc Soundtrack Chords & Tabs

Version: 6 Type: Tab 0 ratings
1 star 2 stars 3 stars 4 stars 5 stars
comments

Terminator Theme Tab

song: terminater theme
tabbed by me (baz derryophonics@hotmail.com)

ok this is soooooo easy, i worked it out in a matter
seconds, seriously

if ya time it right it is very cool


play this bit 2 times
e-------------------------|
B-------------------------|
G-------------------------|
D-------------------------|
A--6-------8----9------11-|
E-------------------------|
[ Tab from: http://www.guitartabs.cc/tabs/m/misc_soundtrack/terminator_theme_tab_ver_6.html ]
e-------------------------|
B-------------------------|
G-------------------------|
D-------------------------|
A--6s8-9----9-8-----------|
E---------------9---------|

e-------------------------|
B-------------------------|
G-------------------------|
D------------------8---6--|
A--6s8-9----9-8-----------|
E---------------9---------|

e----------------------------------------|
B----------------------------------------|
G----------------------------------------|
D----------------------------------------|
A--6s8-9----9-8--------------------------|
E---------------9---8h9--------8------6--|

please if anyone uses this let me know cos  it is
my first ever tab i wrote out and i wanna know what
u all  think
Comments