Misc Soundtrack - Terminator Theme Chords & Tabs

 

Terminator Theme Chords & Tabs

Misc Soundtrack Chords & Tabs

Version: 5 Type: Tab 0 ratings
1 star 2 stars 3 stars 4 stars 5 stars
comments

Terminator Theme Tab

it's only a little bit but it sounds quite good.  

e|--------------------------|---------------------------|
b|--------------------------|---------------------------|
g|--------------------------|---------------------------|
D|-13-15-16-----------------|--------------------15-----|
A|--------------------------|-----------------------16--|
E|--------------------------|---------------------------|


e|-----------------------------|
b|-----------------------------|
g|-----------------------------|
D|-----------------------------|
A|-----------------------------|
E|-14--------------------------|


e|--------------------------|---------------------------|
b|--------------------------|---------------------------|
g|--------------------------|---------------------------|
D|-13-15-16-----------------|--------------------15-----|
A|--------------------------|-----------------------16--|
E|--------------------------|---------------------------|


e|-----------------|-----------------|
b|-----------------|-----------------|
g|-15--------------|-13--------------|
D|-----------------|-----------------|
A|-----------------|-----------------|
E|-----------------|-----------------|

[ Tab from: http://www.guitartabs.cc/tabs/m/misc_soundtrack/terminator_theme_tab_ver_5.html ]
e|--------------------------|---------------------------|
b|--------------------------|---------------------------|
g|--------------------------|---------------------------|
D|-13-15-16-----------------|--------------------15-----|
A|--------------------------|-----------------------16--|
E|--------------------------|---------------------------|


e|-----------------------------|
b|-----------------------------|
g|-----------------------------|
D|-----------------------------|
A|-----------------------------|
E|-16--------------------------|


e|-----------------|--------------------|
b|-----------------|--------------------|
g|-----------------|--------------------|
D|-----------------|--------------------|
A|-----------------|--------------------|
E|-14--------------|----------------11--|


e|-----------------|-----------------|
b|-----------------|-----------------|
g|-----------------|-----------------|
D|-----------------|-----------------|
A|-----------------|-----------------|
E|-14--------------|-13--------------|


e|-----------------|
b|-----------------|
g|-----------------|
D|-----------------|
A|-----------------|
E|-11--------------|


that's it!  it's quite spaced out to give a feel of the timeing.

ENJOY!
Comments