Misc Soundtrack - Terminator Theme Chords & Tabs

 

Terminator Theme Chords & Tabs

Misc Soundtrack Chords & Tabs

Version: 4 Type: Tab 0 ratings
1 star 2 stars 3 stars 4 stars 5 stars
comments

Terminator Theme Tab

********************Turminator Theme song*******************

e-----------------------------------------------------------
B-------5-7-8~~~---7s3-3------------------------------------
G--------------------------2~~~~----------------------------
D-----------------------------------------------------------
A-----------------------------------------------------------
E-0---------------------------------------------------------

e-----------------------------------------------------------
B-------5-7-8~~~---7s3-3--12~~~--11~~~----------------------
G-----------------------------------------------------------
D-----------------------------------------------------------
A-----------------------------------------------------------
E-0-0-------------------------------------------------------
[ Tab from: http://www.guitartabs.cc/tabs/m/misc_soundtrack/terminator_theme_tab_ver_4.html ]
e-----------------------------------------------------------
B-------5-7-8~~~---7s3-3------------------------------------
G------------------------2~~~----2--0-------0----4~~~---2~~~
D---------------------------------------2-------------------
A-----------------------------------------------------------
E-0-0-0-----------------------------------------------------


e-----------------------------------------------------------
B-----------------------------------------------------------
G-----------------------------------------------------------
D-----------------------------------------------------------
A-----------------------------------------------------------
E--0-0-0--00------0-0-0--00------0-0-0--00------0-0-0--00---

Play from the top again when guitar 2 plays the zeros,
or if you can play the zeros to.


*By Oscar in Sweden*
======================> God luck <==========================
Comments