Misc Soundtrack - Terminator Theme Chords & Tabs

 

Terminator Theme Chords & Tabs

Misc Soundtrack Chords & Tabs

Version: 1 Type: Tab 0 ratings
1 star 2 stars 3 stars 4 stars 5 stars
comments

Terminator Theme Tab

This is pretty much the whole thing, it sounds cool if you 
play it down or up a few steps like if you start on the 5th fret
or the 9th fret instead of the 7th, just tinker around with it and
see what you like

-jabroni signing out

[ Tab from: http://www.guitartabs.cc/tabs/m/misc_soundtrack/terminator_theme_tab.html ]
e------------------------------
b------------------------------
g--7-9-10--9-------------------
d-----------10-----------------
a--------------8---------------
E------------------------------

e------------------------------
b--------------10-8------------
g--7-9-10--9-------------------
d-----------10-----------------
a-----------------------------
E------------------------------

e------------------------------
b------------------------------
g--7-9-10--9-------------------
d-----------10-----------------
a--------------10--8--5-8-7----
E------------------------------
Comments