Misc Soundtrack - Summer Lovin Ska Version Chords & Tabs

 

Summer Lovin Ska Version Chords & Tabs

Misc Soundtrack Chords & Tabs

Version: 1 Type: Tab 0 ratings
1 star 2 stars 3 stars 4 stars 5 stars
comments

Summer Lovin Ska Version Tab

   
summer lovin tabbed by
MIANG

intro 
e-------------------------------
b--------------------------------
g--------------------------------
d-------------------------------
a---------3----3-5-----5--3-5-3--
e--3----3-----------------------3-
[ Tab from: http://www.guitartabs.cc/tabs/m/misc_soundtrack/summer_lovin_ska_version_tab.html ]
verse
Bar chord upstrokes
G,C,D,C

chorus
e-------------------------
b-------------------------
g---------5-----7------5--
d---5-----5-----7------5--
a---5-----3-----5------3--
e---3---------------------

Sad bit
open Chords

G,C,D,C

Have fun
Comments