Misc Soundtrack - Star Wars Theme Chords & Tabs

 

Star Wars Theme Chords & Tabs

Misc Soundtrack Chords & Tabs

Version: 6 Type: Tab 0 ratings
1 star 2 stars 3 stars 4 stars 5 stars
comments

Star Wars Theme Tab

e-------------8-------------8-------------
B---8--5-6------8---5-6-------8---6-5-6---
G-5--------7-------------7--------------7- x2
D-----------------------------------------
A-----------------------------------------
E-----------------------------------------

e---------1-0----------0-----------------
B-------------3-1--1-3---3---0-----------
G-0-0-2--------------------0-------------
D----------------------------------------
A----------------------------------------
E----------------------------------------
[ Tab from: http://www.guitartabs.cc/tabs/m/misc_soundtrack/star_wars_theme_tab_ver_6.html ]
e--------1-0-------3----
B------------3-1-----3--
G-0-0-2-----------------
D-----------------------
A-----------------------
E-----------------------

e---------1-0----------0---------3-3-8-6-5-4-1-------3
B-------------3-1--1-3---3---0-----------------4-3-1--
G-0-0-2--------------------0--------------------------
D-----------------------------------------------------
A-----------------------------------------------------
E-----------------------------------------------------

ENJOY
Any suggestions or questions email me @ s_starbuck100@hotmail.com
Comments