Misc Soundtrack - Star Wars Theme Chords & Tabs

 

Star Wars Theme Chords & Tabs

Misc Soundtrack Chords & Tabs

Version: 1 Type: Tab 0 ratings
1 star 2 stars 3 stars 4 stars 5 stars
comments

Star Wars Theme Tab

Movie Theme
Star Wars
Tabbed By: mjwk_1986@yahoo.com


Part One
[ Tab from: http://www.guitartabs.cc/tabs/m/misc_soundtrack/star_wars_theme_tab.html ]
E----------------18--------------18------------------ }
B----18-16-15-------18--16-15-------18--16-15-16-----.}
G-15----------17--------------17-----------------17-- }repeat
D---------------------------------------------------- }
A----------------------------------------------------.}
E---------------------------------------------------- }

Part Two
                           ho  po  ho
E------------11-10-8-------8-10-8--------------------
B----------8---------11-11--------8-10---------------
G-------------------------------------10-------------
D----------------------------------------------------
A-15-15-15-------------------------------------------
E----------------------------------------------------

ho- hammer on
po- pull off
Comments