Misc Soundtrack - Star Wars Theme Chords & Tabs

 

Star Wars Theme Chords & Tabs

Misc Soundtrack Chords & Tabs

Version: 2 Type: Bass Tab 0 ratings
1 star 2 stars 3 stars 4 stars 5 stars
comments

Star Wars Theme Bass Tab

From: mansonbass@softhome.net
Subject:Star Wars main theme, arranged for bass 

Tabbed by Antonio Manson Bass
Standard notation applies. For any suggestions please email me: 
mansonbass@softhome.net
Intro (listen the original theme)
G:------------|--------------|---------------|-9h11p9----|-9--9-9-9-|-9h11p9---|
D:------------|--------------|---------------|--------12-|----------|--------12|
A:---0-0-0--0-|-0--0-0-0--0-0|-0--0-0-0--0-0-|-0---------|----------|-0--------|
E:------------|--------------|---------------|-----------|----------|----------|
               Classical Intro  
G:---9-11-9----|-------2-----9-----7-6-4--14---9--7-6-4-14---9-7-6-7-(4)-------|
D:----------12-|-2-2-2-------------5------11-9-7--5-----11-9-7-5---5-(2)-------|
A:-0-----------|-------0-11--9--7--------------0-------------0-----------------|
E:-------------|---------------------------------------------------------------|

G:-------2-----9-----7-6-4--14---9--7-6-4-14---9-7-6-7-(4)-----|---------------|
D:-2-2-2-------------5------11-9-7--5-----11-9-7-5---5-(2)-----|---------------|
A:-------0-11--9--7--------------0-------------0---------------|---------------|
E:---------------------------------------------------------(4)-|---------------|

G:-------------7-6-4-2-2-4-6-4---1-|------------7-6-4-2-9---|------------------|
D:-------4---4-5---2-0---------4---|-2-2-4---4--5---2---7-9-|------------------|
A:--7-7--5-0-----------------0-----|-----5-0--------------7-|------------------|
E:---------------------------------|------------------------|------------------|
[ Tab from: http://www.guitartabs.cc/tabs/m/misc_soundtrack/star_wars_theme_btab_ver_2.html ]
G:-------------7-6-4-2-2-4-6-4---1-|--9-9---14-12-10----------------9-|--------|
D:-------4---4-5---2-0---------4-2-|-----------11-12-14-12-10---------|--------|
A:--7-7--5-0-----------------0-----|---------0----------11-12-14-12---|--------|
E:---------------------------------|-----------------12-------------0-|--------|

G:-------------------------------------------1---1--1-1-1-|--2---2--2-2-2--1---|
D:--2-2-2----2-2-2---2--2---2-2-2-2--2-2-2---2---2--2-2-2-|--2---2--2-2-2--2---|
A:--------------------------------------------------------|----------------2---|
E:--------0-----------------------------------------------|----------------0---|

G:-------------------------------------------1---1--1-1-1-|--2---2--2-2-2--1---|
D:--2-2-2----2-2-2---2--2---2-2-2-2--2-2-2---2---2--2-2-2-|--2---2--2-2-2--2---|
A:--------------------------------------------------------|----------------2---|
E:--------0-----------------------------------------------|----------------0---|

G:-9---------12--12---9---12-12---9---15--15--14--14-12---9--------------------|
D:-----------12--12---9---12-12---9---15--15--14--14-12---9--------------------|
A:-----------------------------------------------------------------------------|
E:-0--0-0-0-------0-0-0-0-----0-0-0-0------0-0-0------0------0-0-0-------------|

G:-9---------12--12---9---12-12---9---15--15--14--14-12---9--------------------|
D:-----------12--12---9---12-12---9---15--15--14--14-12---9--------------------|
A:-----------------------------------------------------------------------------|
E:-0--0-0-0-------0-0-0-0-----0-0-0-0------0-0-0------0------0-0-0-------------|

G:--1-----------------------------------|
D:--2---2-2-2-2-2---2-2-2---2-2-2-------|
A:--2---2-2-2-2-2---2-2-2---2-2-2-------|   Que la fuerza te acompaņe...
E:--0---0-0-0-0-0---0-0-0---0-0-0-------|       by   Mansonbass 2k
Comments