Misc Soundtrack - Star Wars Chords & Tabs

 

Star Wars Chords & Tabs

Misc Soundtrack Chords & Tabs

Version: 2 Type: Tab 0 ratings
1 star 2 stars 3 stars 4 stars 5 stars
comments

Star Wars Tab


                          Star Wars Main Theme
                              (Original!!!)


                                                                        
E------------||-----3--|-----------3-----|-----------3-----|------------
B------------||-----3--|--1--0-----3--3--|--1--0-----3--3--|--1--0------
G------------||--4--4--|--0-----2--4--4--|--0-----2--4--4--|--2---------
D------------||--5-----|--2-----------5--|--2-----------5--|--3---------
A---5--5--5--||--5-----|--3--------------|--3--------------|------------
E------------||--------|-----------------|-----------------|------------
                                                                        

                                                                        
E---------------|-----3--|-----------3-----|-----------3-----|----------
B---1--3--------|-----3--|--1--0-----3--3--|--1--0-----3--3--|--1--0----
G------2--------|--4--4--|--0-----2--4--4--|--0-----2--4--4--|--2-------
D------4--------|--5-----|--2-----------5--|--2-----------5--|--3-------
A---------5--5--|--5-----|--3--------------|--3--------------|----------
E---------------|--------|-----------------|-----------------|----------
                                                                        

                                                                        
E---------------|--------------------|--------------------------|-------
B---1--3--------|--------1--0--------|--------0-----------------|-------
G------2--------|--------0-----2--0--|--0--2-----2--------------|-------
D------4--0--0--|--2--2--2-----------|--2-----------2--4--------|--2----
A---------------|--3-----------------|-----------------5--5--5--|--3----
E---------------|--3-----------------|-----------------5--------|--3----
                                                                        
[ Tab from: http://www.guitartabs.cc/tabs/m/misc_soundtrack/star_wars_tab_ver_2.html ]
                                                                        
E------------------|-----------------|--------------------|-------------
B------1--0--------|--3--------------|--------1--0--------|--------0----
G------0-----2--0--|--3--2--2--------|--------0-----2--0--|--0--2-------
D---2--2-----------|--3-----4--0--0--|--2--2--2-----------|--2----------
A------------------|--------5--------|--3-----------------|--3----------
E------------------|-----------------|--3-----------------|-------------
                                                                        

                                                                        
E------------------|--3-----------------------|-------------------------
B------------3--3--|--4--6--5--3--1-----------|-------------------------
G---2--------------|--5--5--5--0--0--3--2--0--|--2-----------2----------
D---2--2--4--------|--5--5--5--0--1--3--------|--4-----------4----------
A---3--------------|--------3-----------------|--5--5--5--5--5--5--5----
E------------------|--------------------------|-------------------------
                                                                        

                                                                        
E------|-----3--|-----------3-----|-----------3-----|-------------------
B------|-----3--|--1--0-----3--3--|--1--0-----3--3--|--1--0--1--3-------
G------|--4--4--|--0-----2--4--4--|--0-----2--4--4--|--2--------2-------
D------|--5-----|--2-----------5--|--2-----------5--|--3--------4-------
A---5--|--5-----|--3--------------|--3--------------|--------------5----
E------|--------|-----------------|-----------------|-------------------
                                                                        

                                                                        
E------|-----3--|-----------3-----|-----------3-----|-------------------
B------|-----3--|--1--0-----3--3--|--1--0-----3--3--|--1--0--1--3--3----
G------|--4--4--|--0-----2--4--4--|--0-----2--4--4--|--2--------2-------
D------|--5-----|--2-----------5--|--2-----------5--|--3--------4--0----
A---5--|--5-----|--3--------------|--3--------------|-------------------
E------|--------|-----------------|-----------------|-------------------
                                                                        

                                                                        
E---|--3-----------|--------------------|--3--||------------------------
B---|--3-----------|--------------------|--3--||------------------------
G---|--4-----------|-----------2--2--2--|--4--||------------------------
D---|--5--4--2--0--|-----------4--4--4--|--5--||------------------------
A---|--------------|--3--2--0--5--5--5--|--5--||------------------------
E---|--------------|--------------------|--3--||------------------------
                                                                        

Comments