Misc Soundtrack - Star Wars - Imperial March Theme Chords & Tabs

 

Star Wars - Imperial March Theme Chords & Tabs

Misc Soundtrack Chords & Tabs

Version: 4 Type: Tab 0 ratings
1 star 2 stars 3 stars 4 stars 5 stars
comments

Star Wars - Imperial March Theme Tab

-----------------------------------------------------------------------
Star Wars Imperial March
-----------------------------------------------------------------------
Tabbed by: Steven Rahn
Email: SteveRahn@hotmail.com

This is the imperial march theme from star wars. I tabbed version 1 and 2 in standard
and drop D. I also made power chord versions which sound really cool with some distortion or gain.

Version 1:

Tuning: Standard 
e|---------------------------------------|
B|---------------------------------------|
G|---------------------------------------|
D|---------------------5-5-5-6-----------|
A|-5-5-5---8-5---8-5-----------8-5---8-5-|
E|-------6-----6-------------------6-----|

Tuning: Drop D
e|---------------------------------------|
B|---------------------------------------|
G|---------------------------------------|
D|---------------------5-5-5-6-----------|
A|-5-5-5---8-5---8-5-----------8-5---8-5-|
E|-------8-----8-------------------8-----|


Version 2:

Tuning: Standard
e|----------------------------------------|
B|----------------------------------------|
G|----------------------------------------|
D|----------------------------------------|
A|-2-2-2---5-2---5-2---9-9-9-10-5-----5-2-|
E|-------3-----3------------------6-3-----|
[ Tab from: http://www.guitartabs.cc/tabs/m/misc_soundtrack/star_wars_imperial_march_theme_tab_ver_4.html ]
Tuning: Drop D
e|----------------------------------------|
B|----------------------------------------|
G|----------------------------------------|
D|----------------------------------------|
A|-2-2-2---5-2---5-2---9-9-9-10-5-----5-2-|
E|-------5-----5------------------8-5-----|


Power Chord Version 1:

Tuning: Standard
e|----------------------------------------|
B|----------------------------------------|
G|-2-2-2---5-2---5-2---9-9-9-10-5-----5-2-|
D|-2-2-2-3-5-2-3-5-2---9-9-9-10-5-6-3-5-2-|
A|-0-0-0-3-3-0-3-3-0---7-7-7-8--3-6-3-3-0-|
E|-------1-----1------------------4-1-----|
Power Chord Version 2:

Tuning: Drop D
e|-------------------------------------------------------------------|
B|-------------------------------------------------------------------|
G|-------------------------------------------------------------------|
D|-5-5-5-0-8-5-0-8-5---10-10-10-11-8-5-0-8-5-0-8-5-------------------|
A|-5-5-5-0-8-5-0-8-5---10-10-10-11-8-5-0-8-5-0-8-5-------------------|
D|-5-5-5-0-8-5-0-8-5---10-10-10-11-8-5-0-8-5-0-8-5-------------------|


Power Chord Version 3:

Tuning: Standard
e|--------------------------------------------------------------------|
B|--------------------------------------------------------------------|
G|-5-5-5---8-5---8-5---10-10-10-11-8-5---8-5--------------------------|
D|-5-5-5-6-8-5-6-8-5---10-10-10-11-8-5-6-8-5--------------------------|
A|-3-3-3-6-6-3-6-6-3---8--8--8--9--6-3-6-6-3--------------------------|
E|-------4-----4-----------------------4------------------------------|

=======================================================================
Comments