Misc Soundtrack - Star Wars - Imperial March Theme Chords & Tabs

 

Star Wars - Imperial March Theme Chords & Tabs

Misc Soundtrack Chords & Tabs

Version: 3 Type: Tab 0 ratings
1 star 2 stars 3 stars 4 stars 5 stars
comments

Star Wars - Imperial March Theme Tab

This is my first tab so if it's bad don't blame me

e|---------------------|
B|---------------------|
G|---------------------|
D|---------------------|
A|----------7-4---7-4--|
E|--------5-----5------|
[ Tab from: http://www.guitartabs.cc/tabs/m/misc_soundtrack/star_wars_imperial_march_theme_tab_ver_3.html ]
e|---------------------|
B|---------------------|
G|---------------------|
D|---------------------|
A|----------7-4---7-4--|
E|--------5-----5------|

e|---------------------|
B|---------------------|
G|---------------------|
D|---------------------|
A|----------7-4---7-4--|
E|--------5-----5------|

Well there it is!!
I think it's good
Comments