Misc Soundtrack - Star Wars - Imperial March Theme Chords & Tabs

 

Star Wars - Imperial March Theme Chords & Tabs

Misc Soundtrack Chords & Tabs

Version: 2 Type: Tab 0 ratings
1 star 2 stars 3 stars 4 stars 5 stars
comments

Star Wars - Imperial March Theme Tab

   
--------------------------------------------------------------------
			     Imperial March - Star Wars 
--------------------------------------------------------------------
Tabbed by: koosDIEdoos
Email:koosthekoos@msn.com	

Tuning: standard

INTRO
e|--------------------------------------------|
B|--------------------------------------------|
G|--2-2-2---5-2----5-2---9-9-9-10-5-----5-2---|
D|--2-2-2-3-5-2--3-5-2---9-9-9-10-5-6-3-5-2---|
A|--0-0-0-3-3-0--3-3-0---7-7-7-8--3-6-3-3-0---|
E|--------1------1------------------4-1-------|
[ Tab from: http://www.guitartabs.cc/tabs/m/misc_soundtrack/star_wars_imperial_march_theme_tab_ver_2.html ]
Part 1
e|------------------------------------------------------|
B|------------------------------------------------------|
G|-14-2-2-14-13-12-11\10-11-3-8-7-6-5\4-5---------------|
D|-14-2-2-14-13-12-11\10-9--3-8-7-6-5\4-5--3-6---3-5-5--|
A|-12-0-0-12-11-10-9-\8--9--1-6-5-4-3\2-3--3-6---3-5-5--|
E|-----------------------------------------1-4---1-3-3--|

Part 1a
e|---------|			""PLAY""
B|---------|			INTRO
G|-2-5-9---|			PART 1
D|-2-5-9---|			Part 1a
A|-0-3-7---|			Part 1
E|---------|			Part 1b

Part 1b
e|---------|
B|---------|
G|---5-2---|
D|-3-5-2---|
A|-3-3-0---|
E|-1-------|



| /  slide up
| \  slide down
| h  hammer-on
| p  pull-off
| ~  vibrato
| +  harmonic
| x  Mute note
==================================================================
Comments