Misc Soundtrack - Spongebob Squarepants Theme Chords & Tabs

 

Spongebob Squarepants Theme Chords & Tabs

Misc Soundtrack Chords & Tabs

Version: 2 Type: Tab 0 ratings
1 star 2 stars 3 stars 4 stars 5 stars
comments

Spongebob Squarepants Theme Tab

-----------------------------------------------------------------------------
	       	     Spongebob Squarepants End Theme
-----------------------------------------------------------------------------
Tabbed by: Jeremy Chong
Email: billiejoefanclub@hotmail.com

Tuning: Standard

No other Spongebob Squarepants tabs include both rhythm and lead so here is one.
It is tabbed out so that it can be seen how to time the lead with the rhythm
(Rhythm part one goes with Lead part One, Rhythm part two goes with lead part two and so on.)
The rhythm is practically played throughout the whole song except during a pause after part two and three.
For added effect, the lead can add in chord rakes during the rhythm line.

Rhythm part one
e|-----------|-----------------------------------------|-----|--|--|--------|
B|-----------|-----------------------------------------|-----|--|--|--------|
G|-----------|-----------------------------------------|-----|--|--|--------|
D|---9~----9~|--9-9~---9-9~----9~----9-9~---9-9~---9-9~|---9~|9~|-9|--9-9~--|
A|7~----7~---|7~-----7~-----7~-----7~-----7~-----7~----|7~---|--|7-|7~------|
E|-----------|-----------------------------------------|-----|--|--|--------|

Lead part one
e|--------------------------76797---------76797---------76797-------76797---|
B|--------------------------------------------------------------------------|
G|--------------------------------------------------------------------------|
D|--------------------------------------------------------------------------|
A|--------------------------------------------------------------------------|
E|--------------------------------------------------------------------------|

Rhythm part two
E|--------------------------------------------------------------------------|
e|-----|-----------------------|---------------------------|----------------|
B|-----|-----------------------|---------------------------|----------------|
G|-----|----8~-----8~-----8~---|---------------------------|----------------|
D|---9-|9-9~---9-9~---9-9~---9~|--9-9~---9-9~---9-9~---9-9-|----------------|
A|7~---|-----------------------|7~-----7~-----7~-----7~----|----------------|
E|-----|-----------------------|---------------------------|----------------|
[ Tab from: http://www.guitartabs.cc/tabs/m/misc_soundtrack/spongebob_squarepants_theme_tab_ver_2.html ]
Lead part two
e|-------------------------------------76797-----------12-12-1416141614|----|
B|---------------------------------------------------------------------|----|
G|---------------------------------------------------------------------|----|
D|---------------------------------------------------------------------|----|
A|---------------------------------------------------------------------|----|
E|---------------------------------------------------------------------|----|

Rhythm part three
e|------|-------------------------------------------------------------------|
B|------|-------------------------------------------------------------------|
G|------|-------------------------------------------------------------------|
D|--9-9~|-------------------------------------------------------------------|
A|7~----|-------------------------------------------------------------------|
E|------|-------------------------------------------------------------------|

Lead part three
e|--12-12--14-15151515-14-12|-----------------------------------------------|
B|--------------------------|-----------------------------------------------|
G|--------------------------|-----------------------------------------------|
D|--------------------------|-----------------------------------------------|
A|--------------------------|-----------------------------------------------|
E|--------------------------|-----------------------------------------------|

Rhythm part four
e|--------------------------|-----------------------------------------------|
B|--------------------------|-----------------------------------------------|
G|--------------------------|----------8~-----------------------------------|
D|--------------------------|---9-9~-9~------9~-----------------------------|
A|--------------------------|-7~-----------7~-----7~------------------------|
E|--------------------------|-----------------------------------------------|

Lead part four
e|--------------------------|-76797-76795-11-11^^^^-------------------------|
B|--------------------------|-----------------------------------------------|
G|--------------------------|-----------------------------------------------|
D|--------------------------|-----------------------------------------------|
A|--------------------------|-----------------------------------------------|
E|--------------------------|-----------------------------------------------|

"Who lives under a pineapple under the sea? SPONGEBOB SQUAREPANTS!"
Comments