Misc Soundtrack - Shot In The Dark Chords & Tabs

 

Shot In The Dark Chords & Tabs

Misc Soundtrack Chords & Tabs

Version: 1 Type: Tab 0 ratings
1 star 2 stars 3 stars 4 stars 5 stars
comments

Shot In The Dark Tab

Theme from 'A shot in the dark'

A classic film.....here's the tab for the main riff - the riff runs through
the whole 'straight time' part, the swing section has no riff.....


E -------------------------------------------------
B -------------------------------------------------
G -------------------------------------------------
D -------------3--3--2--2--1--1--0--0--------------
A -------3--3--------------------------4--4--3--3--
E -1--1--------------------------------------------


This is the melody that fits over....


E ------------------------------------------------------------------------
B ------------------------------------------------------------------------
G ------------------5-----4--------3--1-----------------------------------
D ----------3----------------------------3--1--3----3--1--3--1------------
A -----3--------------------------------------------------------3--1--3---
E ------------------------------------------------------------------------


The melody repeats but changes at the end......

[ Tab from: http://www.guitartabs.cc/tabs/m/misc_soundtrack/shot_in_the_dark_tab.html ]
E ------------------------------------------------------------------------
B ------------------------------------------------------------------------
G ------------------5-----4--------3--1-----------------------------------
D ----------3----------------------------3--1--3----5----6--5----3--------
A -----3---------------------------------------3----5----6--5----3--------
E ---------------------------------------------1----3----4--3----1--------

Thats it for the straight time bit.....the swing bit is very simple, more like 
an interlude......


E ------------------------------------------------------------------------
B ------------------------------------------------------------------------
G -------------3----------------------------------------------------------
D -----3---6-------6---3-------6-------3----------------------------------
A ------------------------------------------------------------------------
E ------------------------------------------------------------------------


E ------------------------------------------------------------------------
B ------------------------------------------------------------------------
G -------------3---------------5------------------------------------------
D -----3---6-------6---3---------------3----------------------------------
A ------------------------------------------------------------------------
E ------------------------------------------------------------------------


Then it repeats and the main tune starts up again.

Thats all....if you have any enquiries, mail me at mr1b@hotmail.com
Comments