Misc Soundtrack - Sesame Street Theme Chords & Tabs

 

Sesame Street Theme Chords & Tabs

Misc Soundtrack Chords & Tabs

Version: 3 Type: Tab 0 ratings
1 star 2 stars 3 stars 4 stars 5 stars
comments

Sesame Street Theme Tab

sesame street theme:
artist: ?? misc
by Cass Cass
babe_made_in_australia@hotmail.com
[ Tab from: http://www.guitartabs.cc/tabs/m/misc_soundtrack/sesame_street_theme_tab_ver_3.html ]
e--------------------------------------------------------
B-----------------------------1-----------------1--------
G-00-22-33-232--00-22-33-232----2--------0-2------2------
D---------------------------------3----3------------3----
A--------------------------------------------------------
E--------------------------------------------------------

e--------------------------------------------------------|
B----1-------------0-1-3----3-4-3-1-----------------111--|
G------2------0-2---------5---------2-0--0-2-3-2--0------|
D--------3--3--------------------------------------------|
A--------------------------------------------------------|
E--------------------------------------------------------|

sorry...i got bored so yeah...?
Comments