Misc Soundtrack - School Of Rock Chords & Tabs

 

School Of Rock Chords & Tabs

Misc Soundtrack Chords & Tabs

Version: 2 Type: Tab 0 ratings
1 star 2 stars 3 stars 4 stars 5 stars
comments

School Of Rock Tab

   
Artist: School of Rock
Song:School of Rock

Intro

E---------------------------------|
A---------------------------------|
D---------------------------------| repeat a few times
G-7-7-7-7-7-7--7-7-7-7-7-7-7-7-7--|
B-7-7-7-8-7-10-8-7-8---8---7---8--|
E---------------------------------|


I noticed that one part in the other tab for school of rock wasn't correct.
After the intro, Zach comes in hitting a chord...
[ Tab from: http://www.guitartabs.cc/tabs/m/misc_soundtrack/school_of_rock_tab_ver_2.html ]
  D
E---|
A---|
D-0-|
G-2-|
B-3-|
e-2-|
     He does that 3 times then does this:

  D         C            G              C
E------------0------------3-------------0-------------|
A------------3------------2-------------3-------------|
D-0----------2------------0-------------2-------------|
G-2----------0------------0-------------0-------------|
B-3----------1------------0-------------1-------------|
e-2----------0------------1-------------0-------------|


Tabbed by Matt
Comments