Misc Soundtrack - Schindlers List Theme Chords & Tabs

 

Schindlers List Theme Chords & Tabs

Misc Soundtrack Chords & Tabs

Version: 3 Type: Tab 0 ratings
1 star 2 stars 3 stars 4 stars 5 stars
comments

Schindlers List Theme Tab

Theme from the movie Schindler's List, composed by John Williams, 
released 1993

e|--------------|--------------|--------------|--------------|
B|--3-----3-----|--4--3--------|--------------|--3-----------|
G|-----0-----0--|--------3-----|--3-----3--5--|--------------|
D|--------------|-----------0--|--------------|--3--4--------|
A|--------------|--------------|-----3--3-----|--------------|
E|--------------|--------------|--------------|--------------|

e|--------------|--------------|--------------|--------------|
B|--3-----3-----|--6--4--3-----|--------------|--5--3--1-----|
G|-----0-----0--|-----------5--|--------2--5--|-----------3--|
D|--------------|--3-----3-----|--3--2--------|--4--3--2--0--|
A|--------------|--------------|--------0-----|--------------|
E|--------------|--------------|--3-----------|--------------|

[ Tab from: http://www.guitartabs.cc/tabs/m/misc_soundtrack/schindlers_list_theme_tab_ver_3.html ]
e|--------------|--------------|--------------|--------------|
B|--------------|--3--1-----1--|--3-----------|--------------|
G|--5-----5-----|--0------3----|--2-----------|--------------|
D|-----2-----2--|---------4----|--------------|--0-----------|
A|--0-----------|--------------|--------------|--------------|
E|--------------|--------------|--------------|--------------|


e|--------------|--------------|--------------|--------------|
B|--------------|--3--1-----1--|--------------|--3-----------|
G|--5-----5-----|--0------3----|--0-----------|--------------|
D|-----2-----2--|---------4----|--------------|--------------|
A|--------------|--------------|--------------|--0-----------|
E|--------------|--------------|--3-----------|--------------|


e|--------------|--------------|--------------|
B|--------------|--3--1-----1--|-----3--------|
G|--3-----3-----|--0------3----|--0-----------|
D|-----0-----0--|---------4----|--------------|
A|--3-----------|--------------|--------------|
E|--------------|--------------|--------------|
Comments