Misc Soundtrack - Schindlers List Theme Chords & Tabs

 

Schindlers List Theme Chords & Tabs

Misc Soundtrack Chords & Tabs

Version: 2 Type: Tab 0 ratings
1 star 2 stars 3 stars 4 stars 5 stars
comments

Schindlers List Theme Tab

Composer: John Williams


This is a classical concerto, it was the main theme in the movie, "Schindler's
List", usually the solo instrument is a violin or a flute, but this sounds
awesome with some distortion on an electric guitar.

[ Tab from: http://www.guitartabs.cc/tabs/m/misc_soundtrack/schindlers_list_theme_tab_ver_2.html ]
----------------------------|-------------------------------------------------
----------------------------|-------------------------------------------------
-2---2---3-2-----------0-2--|-2---2---5-3-2-0-------0-3-2-0---0---0---2-0-----
---0---0-----3---3---3------|---0---0-------------2---------3-------------3---
---------------0------------|-----------------3-1---------------0---0---------
-------------------3--------|-------------------------------------------------
                                                                              

-----|--------------------------|---------------------------------------------
-----|--------------------------|---------------------------------------------
-0-2-|-2-0---0---2-0------------|----------2-0------------(REPEAT UP 1 OCTAVE)
-----|---------------3-2-0---2--|-3---3--------3-2-0--------------------------
-----|-----1---1----------------|---------------------------------------------
-----|--------------------------|---3---3-------------------------------------
Comments