Misc Soundtrack - Saved By The Bell Theme Chords & Tabs

 

Saved By The Bell Theme Chords & Tabs

Misc Soundtrack Chords & Tabs

Version: 2 Type: Tab 0 ratings
1 star 2 stars 3 stars 4 stars 5 stars
comments

Saved By The Bell Theme Tab

Saved by the Bell - Theme Song
Guitar Leads

By Adam Campbell
adam@iamnext.com

Lick 1

E  :-------5---*-5-*-5-|5-*--------------|----------------|
B  :-3/5---*---5-*-5-*-|--5-3-*----------|----------------|
G  :-------------------|------2~-----*---|----------------|
D  :-------------------|-----------------|----------------|
A  :-------------------|-----------------|----------------|
E  :-------------------|-----------------|----------------|

Solo

E  :----------------|----------------|---15--*----15--*----15-|
B  :----------------|----------------|17--*-15-17--*-15-17--*-|
G  :----------------|----------------|------------------------|
D  :----------------|----------------|------------------------|
A  :----------------|----------------|------------------------|
E  :----------------|----------------|------------------------|

E  :-*-15--*-15--*-15--*-15-|-*-15--*-15----*-------|
B  :17-15-17-15-17-15-17-15-|17-15-17-15---17-15-13-|
G  :------------------------|-----------------------|
D  :------------------------|-----------------------|
A  :------------------------|-----------------------|
E  :------------------------|-----------------------|
[ Tab from: http://www.guitartabs.cc/tabs/m/misc_soundtrack/saved_by_the_bell_theme_tab_ver_2.html ]
E  :-----------------------------|------------------|
B  :15--*-15-/17--15--*----15-/17|--15----*---------|
G  :---14--*---------14-12--*----|-------14-------*-|
D  :-----------------------------|------------------|
A  :-----------------------------|------------------|
E  :-----------------------------|------------------|

E  :----------------------|13-13-13-13-15-13-*---|
B  :10-10-10-10-10-10-*---|13-13-13-13--*-13-*---|
G  :-7--7--7--7--7--7-*---|----------------------|
D  :----------------------|----------------------|
A  :----------------------|----------------------|
E  :----------------------|----------------------|

E  :-------15--*-----15--*----15|-*-15-17-19~---------|--------*-------|
B  :15-17---*-15-17---*-15-17--*|17--*----------------|----------------|
G  :----------------------------|---------------------|----------------|
D  :----------------------------|---------------------|----------------|
A  :----------------------------|---------------------|----------------|
E  :----------------------------|---------------------|----------------|

Lick 2 (Outro)

E  :----------------|------------------|----------------|
B  :----------------|----5-3-*---------|----------------|
G  :----------------|--------4-5-4-2-2-|---------------*|
D  :----------------|------------------|----------------|
A  :----------------|------------------|----------------|
E  :----------------|------------------|----------------|
Comments