Misc Soundtrack - Saved By The Bell Theme Chords & Tabs

 

Saved By The Bell Theme Chords & Tabs

Misc Soundtrack Chords & Tabs

Version: 1 Type: Tab 0 ratings
1 star 2 stars 3 stars 4 stars 5 stars
comments

Saved By The Bell Theme Tab

   
A        D7
  When I wake up in the mornin and the alarm gives me a  warnin and i dont 
A                             D7
think ill make it on time     By The time i grab my books and give my self a 
               F                              E
look im at the corner just in time to see the bus fly by 
G    D/F#     E                          A
It's al-right cause im saved by the bell
A        D7                                                 A
  If the teacher pops a test and I know Im in a mess and my dog ate all my 
                         D7
homework lastnight Ridin low in my chair she wont know that im there if i can 
F                           E
hand it in tomorrow it will be alright
Solo
E  :----------------|----------------|---15--*----15--*----15-|
B  :----------------|----------------|17--*-15-17--*-15-17--*-|
G  :----------------|----------------|------------------------|
D  :----------------|----------------|------------------------|
A  :----------------|----------------|------------------------|
E  :----------------|----------------|------------------------|
[ Tab from: http://www.guitartabs.cc/tabs/m/misc_soundtrack/saved_by_the_bell_theme_tab.html ]
E  :-*-15--*-15--*-15--*-15-|-*-15--*-15----*-------|
B  :17-15-17-15-17-15-17-15-|17-15-17-15---17-15-13-|
G  :------------------------|-----------------------|
D  :------------------------|-----------------------|
A  :------------------------|-----------------------|
E  :------------------------|-----------------------|

E  :-----------------------------|------------------|
B  :15--*-15-/17--15--*----15-/17|--15----*---------|
G  :---14--*---------14-12--*----|-------14-------*-|
D  :-----------------------------|------------------|
A  :-----------------------------|------------------|
E  :-----------------------------|------------------|

E  :----------------------|13-13-13-13-15-13-*---|
B  :10-10-10-10-10-10-*---|13-13-13-13--*-13-*---|
G  :-7--7--7--7--7--7-*---|----------------------|
D  :----------------------|----------------------|
A  :----------------------|----------------------|
E  :----------------------|----------------------|

E  :-------15--*-----15--*----15|-*-15-17-19~---------|--------*-------|
B  :15-17---*-15-17---*-15-17--*|17--*----------------|----------------|
G  :----------------------------|---------------------|----------------|
D  :----------------------------|---------------------|----------------|
A  :----------------------------|---------------------|----------------|
E  :----------------------------|---------------------|----------------|
G   D7 E
Its al-right cause im saved by the
G   D7 E
Its al-right cause im saved by the
G   D7 E
Its al-right cause im saved by the The bell
End riff
E  |------------------|
B  |----5-3-*---------|
G  |--------4-5-4-2-2-|
D  |------------------|
A  |------------------|
E  |------------------


Have fun with it

FLUX CAPACITOR!
Comments