Misc Soundtrack - Sailor Moon Theme Chords & Tabs

 

Sailor Moon Theme Chords & Tabs

Misc Soundtrack Chords & Tabs

Version: 1 Type: Tab 0 ratings
1 star 2 stars 3 stars 4 stars 5 stars
comments

Sailor Moon Theme Tab

This is my first attempt at a tab, so bear with me. Here is this
great cartoon's theme song.

"Fighting evil by moonlight..."
E--0--7--7--5--3--2--5
B---------------------
D---------------------
G---------------------
A---------------------
E---------------------
[ Tab from: http://www.guitartabs.cc/tabs/m/misc_soundtrack/sailor_moon_theme_tab.html ]
"Winning love by daylight..."
E--0--5--5--3--2--0--3
B---------------------
D---------------------
G---------------------
A---------------------
E---------------------

"Never running from a real fight..."
E-0--7--7--5--7--10--8
B---------------------
D---------------------
G---------------------
A---------------------
E---------------------

"She is the one named Sailor Moon!"
E-7--7--7--7--5--3--2--0
B-----------------------
D-----------------------
G-----------------------
A-----------------------
E-----------------------

More to come soon...
Comments