Misc Soundtrack - Rocky Theme Chords & Tabs

 

Rocky Theme Chords & Tabs

Misc Soundtrack Chords & Tabs

Version: 1 Type: Tab 0 ratings
1 star 2 stars 3 stars 4 stars 5 stars
comments

Rocky Theme Tab

Rocky Intro Theme
Tabbed By Kevin Cruz

I've transcribed the song from thr trumpets to the 
Guitar. I hope you'll enjoy.

Standard tunning:

|---------------------------|-------------------------------|
|-----------------0---------|--0-0---0-0-0---0-0-3---0-0-0--|
|-0---0-0-0---0-0----0-0-0--|-------------------------------|
|---------------------------|-------------------------------|
|---------------------------|-------------------------------|
|---------------------------|-------------------------------|
  .   . . .   . . .  . . .     . .   . . .   . . .   . . .
[ Tab from: http://www.guitartabs.cc/tabs/m/misc_soundtrack/rocky_theme_tab.html ]
|-------------------1----------|-1-1---1-1-1---1-1-4---1-1-1-|
|-3-3---3-3-3---3-3-----3-3-3--|-----------------------------|
|------------------------------|-----------------------------|
|------------------------------|-----------------------------|
|------------------------------|-----------------------------|
|------------------------------|-----------------------------|
  . .   . . .   . . .   . . .    . .   . . .   . . .   . . .

|-4-4---4-4-4---4-4-7---4-4-4--|-7~---7~---|
|------------------------------|-----------|
|------------------------------|-----------|
|------------------------------|-----------|
|------------------------------|-----------|
|------------------------------|-----------|
  . .   . . .   . . .   . . .    

|------------|---3~-------|
|---3~--5~---|-5----------|8x
|-4----------|-------4~---|
|------------|------------|
|------------|------------|
|------------|------------|

And that's it.
Comments