Misc Soundtrack - Rocky Chords & Tabs

 

Rocky Chords & Tabs

Misc Soundtrack Chords & Tabs

Version: 2 Type: Tab 0 ratings
1 star 2 stars 3 stars 4 stars 5 stars
comments

Rocky Tab

"Rocky"
By: Alex Soto

Hi this is mi second tab so i hope you give it a chance 
and i got another, it's "ich will"(rammstein) so if you have a 
chance please chek it out.

This is the theme of the movie "rocky" and it's so easy for 
all players and best for the beginers.
I hope you like it. 

Standar Tuning.
Whit Distorsion.
[ Tab from: http://www.guitartabs.cc/tabs/m/misc_soundtrack/rocky_tab_ver_2.html ]
e||--------------------------|--------------------------|}
B||--------------------------|--------------------------|}
G||--------------------------|--------------------------|}
D||--7---7-7-7-7-7-7---------|--7--5--7---7-7-7-7-7-7---|}
A||--7---7-7-7-7-7-7---------|--7--5--7---7-7-7-7-7-7---|}
E||--5---5-5-5-5-5-5---------|--5--3--5---5-5-5-5-5-5---|}
       PM - - - - - -PM                PM - - - - - -PM
e||--------------------------|--------------------------|}
B||--------------------------|--------------------------|}
G||--------------------------|--------------------------|}
D||--7--5--7---7-7-7-7-7-7---|--7--5--3~~~5--7----------|}
A||--7--5--7---7-7-7-7-7-7---|--7--5--3~~~5--7----------|}
E||--5--3--5---5-5-5-5-5-5---|--5--3--1~~~3--5----------|}
             PM- - - - - -PM
You se that it's so easy.For any Questions or coments
my mail is alsolo86@hotmail.com
Comments