Misc Soundtrack - Pulp Fiction Theme Chords & Tabs

 

Pulp Fiction Theme Chords & Tabs

Misc Soundtrack Chords & Tabs

Version: 4 Type: Tab 0 ratings
1 star 2 stars 3 stars 4 stars 5 stars
comments

Pulp Fiction Theme Tab

   
----------------------------------------------------------------------------
			    Pulp Fiction Theme
----------------------------------------------------------------------------
Tabbed by:matt Spencer
Email:matt_spncr@yahoo.com

Tuning: Standard
This is a Really Fast Song Try To Hit Each Fret At Least 8 Times

Do this Twice
e|-------------------------------------------------------------------------|
B|-------------------------------------------------------------------------|
G|-------------------------------------------------------------------------|
D|-------------------------------------------------------------------------|
A|-------------------------------------------------------------------------|
E|--0-0-0-0-1-4-5-7-8-11-8-7-----------------------------------------------|

Then This Once
e|-------------------------------------------------------------------------|
B|-------------------------------------------------------------------------|
G|-------------------------------------------------------------------------|
D|-------------------------------------------------------------------------|
A|-------------------------------------------------------------------------|
E|--8-7-8-7/8\7-5---7-5-7-5/7\5-4-0-4-4-4----------------------------------|

Then This Once
e|-------------------------------------------------------------------------|
B|-------------------------------------------------------------------------|
G|-------------------------------------------------------------------------|
D|-------------------------------------------------------------------------|
A|-------------------------------------------------------------------------|
E|--7-5-7-5/7\5-4-5-4-5-4/5\4-1-0-0-0-0------------------------------------|

e|12\slide all the way to 1------------------------------------------------|
B|-------------------------------------------------------------------------|
G|-------------------------------------------------------------------------|
D|-------------------------------------------------------------------------|
A|-------------------------------------------------------------------------|
E|-------------------------------------------------------------------------|

Then Do This Twice
e|-0-0-0-0-1-4-5-7-8-11-8-7------------------------------------------------|
B|-------------------------------------------------------------------------|
G|-------------------------------------------------------------------------|
D|-------------------------------------------------------------------------|
A|-------------------------------------------------------------------------|
E|-------------------------------------------------------------------------|
[ Tab from: http://www.guitartabs.cc/tabs/m/misc_soundtrack/pulp_fiction_theme_tab_ver_4.html ]
Then This Once
e|--8-7-8-7/8\7-5--7-5-7-5/7\5-4-0-4-4-4-----------------------------------|
B|-------------------------------------------------------------------------|
G|-------------------------------------------------------------------------|
D|-------------------------------------------------------------------------|
A|-------------------------------------------------------------------------|
E|-------------------------------------------------------------------------|

e|--7-5-7-5/7\5-4--5-4-5-4/5\4--1-0-0-0------------------------------------|
B|-------------------------------------------------------------------------|
G|-------------------------------------------------------------------------|
D|-------------------------------------------------------------------------|
A|-------------------------------------------------------------------------|
E|-------------------------------------------------------------------------|

Trumpet Solo (Something Like This)
e|----------------------------------------------------------|
B|----------------------------------------------------------|
G|-----------0-1-2--12-4--2-4-5--8-5-8-9--------------------|
D|-2-1-2-3-4------------------------------------------------|
A|----------------------------------------------------------|
E|----------------------------------------------------------|

e|----------------------------------------------------------|
B|----------------------------------------------------------|
G|-10-9-10-9/10\9-7--9-7-9-7/9\7--5-4--7-5-7-5/7\5-4--------|
D|----------------------------------------------------------|
A|----------------------------------------------------------|
E|----------------------------------------------------------|

e|----------------------------------------------------------|
B|----------------------------------------------------------|
G|-5-4-5-4/5\4-----------------0-1--------------------------|
D|--------------3-2--2-1-2-3-4------------------------------|
A|----------------------------------------------------------|
E|----------------------------------------------------------|

e|----------------------------------------------------------|
B|----------------------------------------------------------|
G|----------------------------------------------------------|
D|----------------------------------------------------------|
A|-0--------------------------------------------------------|
E|---4-5-7--5-7-8--11-12--13-12-13-12/13\12--12-10-12-------|

e|----------------------------------------------------------|
B|----------------------------------------------------------|
G|----------------------------------------------------------|
D|----------------------------------------------------------|
A|----------------------------------------------------------|
E|-10/12\10-8-7--10-8-10-8/10\8-7--8-7-8-7-1-0--------------
 

 /  slide up
 \  slide down
 h  hammer-on
 p  pull-off
 ~  vibrato
 +  harmonic
 x  Mute note

Please Rate 
It Takes a while to get the speed but once youve got it sorted its great fun to play

Ave Fun
Comments