Misc Soundtrack - Pulp Fiction Theme Chords & Tabs

 

Pulp Fiction Theme Chords & Tabs

Misc Soundtrack Chords & Tabs

Version: 2 Type: Tab 3 ratings
1 star 2 stars 3 stars 4 stars 5 stars
comments

Pulp Fiction Theme Tab

this whole song is played on the bottom 2 strings

Note; start the song on the 14th fret on the bottom string and
slide it down to the 1st fret strumming the string four or five times

\= slide

e--0--0-0--4-5-7--7-7--10-8-7--7-7-7-7-7-7-7-7-7-7-
b--------------------------------------------------
G--------------------------------------------------    Repeat x2
D--------------------------------------------------
A--------------------------------------------------
E--------------------------------------------------

[ Tab from: http://www.guitartabs.cc/tabs/m/misc_soundtrack/pulp_fiction_theme_tab_ver_2.html ]
e-8-7-8-7--5--7-7--5-7-5---4-0-4--4-4-4-4-4-4-4----
b--------------------------------------------------
G--------------------------------------------------    Repeat x1
D--------------------------------------------------
A--------------------------------------------------
E--------------------------------------------------

e-0---7-5-7-5-4-5-5-4-5-4---0-0-0-0-0-----14\0-----
b-------------------------6------------------------
G--------------------------------------------------    Repeat x1
D--------------------------------------------------
A--------------------------------------------------
E--------------------------------------------------

                           -Beer is life-              cheers.
Comments