Misc Soundtrack - Police Academy Theme Chords & Tabs

 

Police Academy Theme Chords & Tabs

Misc Soundtrack Chords & Tabs

Version: 1 Type: Tab 0 ratings
1 star 2 stars 3 stars 4 stars 5 stars
comments

Police Academy Theme Tab

Hiya Ray here again, i worked this out ages ago so i thought id put it on the
site for fans of the movie:

Riff 1:

E|---------9-8-6---|----------9---|-------------|
B|-9-------------9~|-9-9-11-9---9~|-7-7-7-5---7~|
G|---6-8-6---------|--------------|---------7---|
D|-----------------|--------------|-------------|
A|-----------------|--------------|-------------|
E|-----------------|--------------|-------------|

Riff 2:
[ Tab from: http://www.guitartabs.cc/tabs/m/misc_soundtrack/police_academy_theme_tab.html ]
E|---------9-8-6---|----------9---|-------------|
B|-9-------------9~|-9-9-11-9---9~|-7-7-7-5-4---|
G|---6-8-6---------|--------------|-----------4~|
D|-----------------|--------------|-------------|
A|-----------------|--------------|-------------|
E|-----------------|--------------|-------------|

Thats pretty much the main part and the part that most people are interested in.
The ending may not be 100% but it sounds good on guitar. 
Thanx,Ray.
Comments