Misc Soundtrack - Police Academy Chords & Tabs

 

Police Academy Chords & Tabs

Misc Soundtrack Chords & Tabs

Version: 1 Type: Tab 1 rating
1 star 2 stars 3 stars 4 stars 5 stars
comments

Police Academy Tab

Police Academy - theme 
[ Tab from: http://www.guitartabs.cc/tabs/m/misc_soundtrack/police_academy_tab.html ]
E||-----------------------|----------------------|--------------------------|
B||------------------6----|--5----3--------------|------------------6-------|
G||--5--------------------|------------5---/--5--|---5-5-7-5-5-5-------5----|
D||-------3--5--3---------|----------------------|--------------------------|
A||-----------------------|----------------------|--------------------------|
E||-----------------------|----------------------|--------------------------|

                        
E||------------------------||
B||------------------------||
G||------------------------||
D||----8--7--8--7-----5----||
A||----------------8-------||
E||------------------------||

We think that's right so  
Any comments to synchrone@hotmail.com

From Toni and Pierre from Luxembourg 
Comments