Misc Soundtrack - Pirates Of The Caribbean Theme Chords & Tabs

 

Pirates Of The Caribbean Theme Chords & Tabs

Misc Soundtrack Chords & Tabs

Version: 1 Type: Tab 0 ratings
1 star 2 stars 3 stars 4 stars 5 stars
comments

Pirates Of The Caribbean Theme Tab

Tabbed by:Evan
Prates of the Caribbean

[ Tab from: http://www.guitartabs.cc/tabs/m/misc_soundtrack/pirates_of_the_caribbean_theme_tab.html ]
E--------------------------------|
B--------------------------------|
G--------------------------------|
D--------------------------------|
A-0-0--0-2-3-3--3-5-2-2--0---0---|
E--------------------------3-----|

E--------------------------------|
B--------------------------------|
G--------------------------------|
D--------------------------------|
A-0-0--0-2-3-3--3-5-2-2--0---0---|
E--------------------------3-----|

Thats all I figured out.
Comments