Misc Soundtrack - Munsters Theme Chords & Tabs

 

Munsters Theme Chords & Tabs

Misc Soundtrack Chords & Tabs

Version: 2 Type: Tab 0 ratings
1 star 2 stars 3 stars 4 stars 5 stars
comments

Munsters Theme Tab

i dont have the whole thing 4 all u guitar players out there that want 
to learn this crap so if u figure out anything more than this put it 
on the corrections and sorry if i goofed on any parts of it and i know 
i didnt do the right spacing (this is the first time i ever tabed)

[ Tab from: http://www.guitartabs.cc/tabs/m/misc_soundtrack/munsters_theme_tab_ver_2.html ]
e--------------------------------------------------------------------
b--------------------------------------------------------------------
g--------------------------------------------------------------------
d--------------------7-----------------------------------------------
a----------------6-7---8--7--5--7--5----5----------------------------
e-----5---8---5----------------------8-----8--7--5--3--5-------------

and after your done with that part it pauses and does the part thats sort 
of like the chorus i guess

e--------------------------------------------------------------------
b--------------------------------------------------------------------
g--------------------------------------------------------------------
d--------------------------------------------------------------------
a-------6-7---------6-7--------6-7--------6-7------------------------
e--5--5--------5--5-------5--5-------5--5---------------------------
Comments