Misc Soundtrack - Mortal Kombat Chords & Tabs

 

Mortal Kombat Chords & Tabs

Misc Soundtrack Chords & Tabs

Version: 1 Type: Tab 0 ratings
1 star 2 stars 3 stars 4 stars 5 stars
comments

Mortal Kombat Tab

Mortal Kombat

you know that little techno tune from the movie

i tabbed it cuz it suddenly came into my head
hope you like it 

enjoy:)


E-------------------------------------------------------------------------------------
A-------------------------------------------------------------------------------------
D----------------------9---7---9---7-------------9------------------------------------
G-----7---7---10---7-------------------10---10-------10----12----9----12---9----------
B-------------------------------------------------------------------------------------
E-------------------------------------------------------------------------------------
[ Tab from: http://www.guitartabs.cc/tabs/m/misc_soundtrack/mortal_kombat_tab.html ]
E----------------------------------------------------------------------------------------
A-----------------------------------------------------------------------------------------
D-----------------------------------------------------------------------------------------
G-----------------9--------12----9----12----9--------------7---------10-------7-----10----9--
B-----10----10--------10--------------------------8---8--------8--------------------------
E-----------------------------------------------------------------------------------------

Just repeat that and you've got it
(listen to the tune to get the right pattern)
there are plenty of midi sites you can get this from!

have fun and peace out

ToNy- X


Comments