Misc Soundtrack - Mission Impossible Theme Chords & Tabs

 

Mission Impossible Theme Chords & Tabs

Misc Soundtrack Chords & Tabs

Version: 9 Type: Tab

Mission Impossible Theme Tab

Intro
Guitar 1:
e-|----------------------------------|
b-|----------------------------------|    Play that twice
g-|---------5---7--------------------|
D-|-7---7---5---5---7---7---5---6----|
A-|-7---7---3---5---7---7---5---6----|
E-|-5---5-----------5---5---3---4----|

Guitar 1 plays the intro again and again while Guitar 2 plays the notes
Guitar 2 Riff 1:
e-|----------------------------------------------------------|
b-|--1-----------1-----------1-------------------------------|
g-|-----2-------------2------------2-------------------------|
D-|--------2--------------1------------0------------------0--|
A-|-----------------------------------------------------3----|
E-|----------------------------------------------------------|

Guitar 2 Riff 2:

e-|-------------4-----------------3-----------------2----------1—0-|
b-|-----1----------------1----------------1------------------------|
g-|---------2-----------------2----------------2-------------------|
D-|----------------------------------------------------------------|
A-|----------------------------------------------------------------|
E-|----------------------------------------------------------------|

Then while the two last notes of the guitar 2, guitar 1 plays:
[ Tab from: http://www.guitartabs.cc/tabs/m/misc_soundtrack/mission_impossible_theme_tab_ver_9.html ]
e-|---------------------------------------------------|
b-|---------------------------------------------------|
g-|----------5---6---7---7---10---12--—7—--7--—5—--6--|
D-|--7---7---5---6---7---7---10---12—--7—--7--—5--—6--|
A-|--7---7---3---4---5---5---8----10---5—--5---3---4--|
E-|--5---5--------------------------------------------|          

While guitar 1 plays this guitar 2 plays: Riff 3

e-|----1-----------------1------------------1------------------------------|
b-|--------4-----------------4------------------4--------------------------|
g-|-------------2---------------1-------------------0------------------0---|
D-|-----------------------------------------------------------------3------|
A-|------------------------------------------------------------------------|
E-|------------------------------------------------------------------------|

While the two last notes of guitar 2, guitar 1 plays again the intro and starts with the chords
G and G#  and then guitar 2 plays Riff 1

Outro:

Guitar1:
e-|-----------------------------------------------|
b-|-----------------------------------------------|
g-|-----9---9---10---12---9----------------10—-8--|
D-|-----9---9---10---12---9----------------10—-8--|
A-|-----7---7---8----10---7----------------8---6--|
E-|-----------------------------------------------|

While guitar 1 plays the chords, guitar 2 plays:

e-|----7---7---8---10---7-------------------7---5---|
b-|-------------------------------------------------|
g-|-------------------------------------------------|
D-|-------------------------------------------------|
A-|-------------------------------------------------|
E-|-------------------------------------------------|

My english is not so good because I’m from Germany……
Please rate this tab because it’s my first