Misc Soundtrack - Mission Impossible Theme Chords & Tabs

 

Mission Impossible Theme Chords & Tabs

Misc Soundtrack Chords & Tabs

Version: 2 Type: Tab 0 ratings
1 star 2 stars 3 stars 4 stars 5 stars
comments

Mission Impossible Theme Tab

Mission Impossible Theme
Andy Gervasio, pimpdog1985@yahoo.com
|-----------------------------------------------------
|-----------------------------------------------------
|-----------------------------------------------------
|-----------------------------------------------------
|--------------1-3------------------------------------
|--3-x-3-x-3-x------3-x-3-x-3-x-1-2-------------------
OK part

|----6-3---6-3----6-3-----------|
|--------3----------------------|
|--------------6-------5---3-5--|
|-------------------------------|
|-------------------------------|
|-------------------------------|

 Cool Part

   This is a cool song to play.

  Andy Gervasio



[ Tab from: http://www.guitartabs.cc/tabs/m/misc_soundtrack/mission_impossible_theme_tab_ver_2.html ]
Comments