Misc Soundtrack - Midnight Express Theme Chords & Tabs

 

Midnight Express Theme Chords & Tabs

Misc Soundtrack Chords & Tabs

Version: 1 Type: Tab 0 ratings
1 star 2 stars 3 stars 4 stars 5 stars
comments

Midnight Express Theme Tab

Tabbed By Zaur "LedZep" Mamedov

hey guys, this is my first tab i post here, i hope you like it.
This is the theme from the incredibly great movie, Midnight Express
(whenever you see a long blank after a note, just let it ring)

                                                                            
E||--5--3------------------|--5--3--------------------|---------------------|
B||--------3---------------|--------3-----------------|--1--3---------------|
G||-----------3--2--0------|-----------3--2--0--2--3--|--------2------------|
D||------------------------|--------------------------|---------------------|
A||------------------------|--------------------------|---------------------|
E||------------------------|--------------------------|---------------------|

                                                                       
------------------|--5--3------------------|--5--3--------------------|
------------------|--------3---------------|--------3-----------------|
------------------|-----------3--2--0------|-----------3--2--0--2--3--|
------------------|------------------------|--------------------------|
------------------|------------------------|--------------------------|
------------------|------------------------|--------------------------|

                                                                    
---------------------|------------------|--3--1-----------------1--|
--1--3---------------|------------------|--------4-----1--3--4-----|
--------2------------|------------------|-----------3--------------|
---------------------|------------------|--------------------------|
---------------------|------------------|--------------------------|
---------------------|------------------|--------------------------|

                                                                           
--3---------1--3--5--6--|--8--10----------------|--------10--10--8--8--6--|
---------4--------------|-----------------------|-------------------------|
------------------------|---------10------------|-------------------------|
------------------------|-----------------------|-------------------------|
------------------------|-----------------------|-------------------------|
------------------------|-----------------------|-------------------------|

                                                 
--10--8--8------------|-----------6--8--10--11--|
----------------------|--------9----------------|
----------------------|-------------------------|
----------------------|-------------------------|
----------------------|-------------------------|
----------------------|-------------------------|

                                                                    
--14--15--14------14-----14-----------|--14--15--14----------------|
--------------16------16-----16-15----|--------------16--15--------|
--------------------------------------|----------------------------|
--------------------------------------|----------------------------|
--------------------------------------|----------------------------|
--------------------------------------|----------------------------|
[ Tab from: http://www.guitartabs.cc/tabs/m/misc_soundtrack/midnight_express_theme_tab.html ]
                                                           
------------------------------|---------------------------|
------------------------------|--10--8--------------------|
--14--12----------------------|---------7--------0--------|
----------12------------------|------------8--7-----7--8--|
--------------13--12--10------|---------------------------|
------------------------------|---------------------------|

                                                                  
---------------------|------------------|--5--3------------------|
---------------------|------------------|--------3---------------|
--5--7---------------|------------------|-----------3--2--0------|
--------7------------|------------------|------------------------|
---------------------|------------------|------------------------|
---------------------|------------------|------------------------|

                                                                    
--5--3--------------------|---------------------|------------------|
--------3-----------------|--1--3---------------|------------------|
-----------3--2--0--2--3--|--------2------------|------------------|
--------------------------|---------------------|------------------|
--------------------------|---------------------|------------------|
--------------------------|---------------------|------------------|

                                                                           
--3--1-----------------1--|--3---------1--3--5--6--|--8--10---------------|
--------4-----1--3--4-----|---------4--------------|---------8------------|
-----------3--------------|------------------------|----------------------|
--------------------------|------------------------|----------------------|
--------------------------|------------------------|----------------------|
--------------------------|------------------------|----------------------|

                                                                         
--------10--10--8--8--6--|--10--8--8------------|--------8--8--6--6--5--|
-------------------------|----------------------|-----------------------|
-------------------------|----------------------|-----------------------|
-------------------------|----------------------|-----------------------|
-------------------------|----------------------|-----------------------|
-------------------------|----------------------|-----------------------|

                                                                       
--5--3--3------------|--------10--10--8--8--6--|--10--8--8------------|
---------------------|-------------------------|----------------------|
---------------------|-------------------------|----------------------|
---------------------|-------------------------|----------------------|
---------------------|-------------------------|----------------------|
---------------------|-------------------------|----------------------|

                                                                  
--------8--8--6--6--5--|--5--3--3------------|------------------||
-----------------------|---------------------|------------------||
-----------------------|---------------------|------------------||
-----------------------|---------------------|------------------||
-----------------------|---------------------|------------------||
-----------------------|---------------------|------------------||

thats it, enjoy this great soundtrack from that great movie.

send any comments to LedZepperus@Yahoo.com
Comments