Misc Soundtrack - Matrix Theme Chords & Tabs

 

Matrix Theme Chords & Tabs

Misc Soundtrack Chords & Tabs

Version: 1 Type: Tab 1 rating
1 star 2 stars 3 stars 4 stars 5 stars
comments

Matrix Theme Tab

---------------------------------
Title:Clubbed to Death (Matrix theme)
Artist:Rob D
Submitted by:Randy Moore
E-mail:zorpheus99@hotmail.com
---------------------------------

This is the basic theme, and mostly the beginning with the bass.Listen
to the theme to get the beat right.

\:slide up 

>:Hold for 1 count
[ Tab from: http://www.guitartabs.cc/tabs/m/misc_soundtrack/matrix_theme_tab.html ]
Guitar#1
            repeat 4x
E|---------------------------------------------------------------
b|---------------------------------------------------------------
g|---------------------------------------------------------------
d|---------------------------------------------------------------
a|------0-2-3----------------------------------------------------
e|-2-2-----------------------------------------------------------


Guitar#2

E|---------------------------------------------------------------
b|---------------------------------------------------------------
g|-0\5->>>>>>>>--------------------------------------------------
d|--------------4-2----------------------------------------------
a|---------------------------------------------------------------
e|---------------------------------------------------------------


  Thats it, its that easy. If you want any other themes or songs, just
send a request to zorpheus99@hotmail.com I'll try my best to get the 
request to you. Later!
                     Randy Moore




Comments