Misc Soundtrack - Lord Of The Rings Chords & Tabs

 

Lord Of The Rings Chords & Tabs

Misc Soundtrack Chords & Tabs

Version: 2 Type: Tab 0 ratings
1 star 2 stars 3 stars 4 stars 5 stars
comments

Lord Of The Rings Tab

My friend is a very big fan of "lord of the rings" so i sat down and got the song from
the movie... here's the result, it taked about 3 minutes.

|----------------------------------------------------|
|--------10-------------------10-12-15-14-10-7-8-7---|
|-7-9-11----11-9-77-7-9-11-11----------------------9-|
|----------------------------------------------------|
|----------------------------------------------------|
|----------------------------------------------------|
[ Tab from: http://www.guitartabs.cc/tabs/m/misc_soundtrack/lord_of_the_rings_tab_ver_2.html ]
|------------------------------------------|
|--------10-------------------10-12-10-7---|
|-7-9-11----11-9-77-7-9-11-11------------9-|
|------------------------------------------|
|------------------------------------------|
|------------------------------------------|

|---------------------------------------|
|-----------------5-7-8-7-5-3-5-h7p-3-2-|
|-7-6-4-44-2-22-4-----------------------|
|---------------------------------------|
|---------------------------------------|
|---------------------------------------|

|----------------------------------------|
|-------------5-7-8-7-8-10-8-10-12-10-12-|
|-4-44-2-22-4----------------------------|
|----------------------------------------|
|----------------------------------------|
|----------------------------------------|

This is the whole song.
Klara you can learn this // Elias 
I'm 16 years old and have some skills:P
Comments