Misc Soundtrack - Little Mermaid - Part Of Your World Chords & Tabs

 

Little Mermaid - Part Of Your World Chords & Tabs

Misc Soundtrack Chords & Tabs

Version: 1 Type: Tab

Little Mermaid - Part Of Your World Tab

-------------------------------------------------------------------------------
	           PART OF YOUR WORLD - Little Mermaid
-------------------------------------------------------------------------------
Tabbed by: pearllillee
Email: pearllillee@yahoo.com

Tuning: Standard
[ Tab from: http://www.guitartabs.cc/tabs/m/misc_soundtrack/little_mermaid_part_of_your_world_tab.html ]
e|-3-3-3-3--5-7----------------------3--------3--5---3-3---3-5-7-------------|
B|---------------3-3-3----3-3-3-3--5-----3--5------------7--------3----------|
G|---------------------------------------------------------------------------|
D|---------------------------------------------------------------------------|
A|---------------------------------------------------------------------------|
E|---------------------------------------------------------------------------|
            (let ring) 
e|-------3--5------------3--5--7---3--5--7--7---3--5--7--10--8--8--7--10--8--|
B|-3--5---------------7------------------------------------------------------|
G|---------------------------------------------------------------------------|
D|---------------------------------------------------------------------------|
A|---------------------------------------------------------------------------|
E|---------------------------------------------------------------------------|
                                      (let ring) 
e|-8--7--3------8--7--3---------3-----3---------3-5-7-7---3-5-7-7---3-5-7-10-|
B|----------3------------3---3-----7-----------------------------------------|
G|---------------------------------------------------------------------------|
D|---------------------------------------------------------------------------|
A|---------------------------------------------------------------------------|
E|---------------------------------------------------------------------------|
                (let ring)         (let ring)         (let ring)    
e|-8--8--7--10--8---------8--7--3------------8--7--3-------------------------|
B|---------------------------------3------------------3----------------------|
G|---------------------------------------------------------------------------|
D|---------------------------------------------------------------------------|
A|---------------------------------------------------------------------------|
E|---------------------------------------------------------------------------|
            (let ring) 
e|----3-----3----------------------------------------------------------------|
B|-3-----7-------------------------------------------------------------------|
G|---------------------------------------------------------------------------|
D|---------------------------------------------------------------------------|
A|---------------------------------------------------------------------------|
E|---------------------------------------------------------------------------|