Misc Soundtrack - Little Mermaid - Daughters Of Triton Chords & Tabs

 

Little Mermaid - Daughters Of Triton Chords & Tabs

Misc Soundtrack Chords & Tabs

Version: 1 Type: Tab

Little Mermaid - Daughters Of Triton Tab

Credit to Howard Ashman and Alan Menken, of course.

-------------------------------------------------------------------------------
			     Daughters of Triton
-------------------------------------------------------------------------------
Tabbed by: pearllillee
Email: pearllillee@yahoo.com

Tuning:

e|-------------3------7---------5-7-5-------7----------------3---------------|
B|-6-3--6-3-4----4-6-------6--3-------3-6-----6--3-4--1-------6--3-----------|
G|---------------------------------------------------------------------------|
D|---------------------------------------------------------------------------|
A|---------------------------------------------------------------------------|
E|---------------------------------------------------------------------------|
[ Tab from: http://www.guitartabs.cc/tabs/m/misc_soundtrack/little_mermaid_daughters_of_triton_tab.html ]
e|---3-------3-5------5-7--3---7-8--5----------------------------------------|
B|-6----4---------6---------------------6-4-3-1-3--6-4-3-1-3--6-4-3-1-3-6----|
G|---------------------------------------------------------------------------|
D|---------------------------------------------------------------------------|
A|---------------------------------------------------------------------------|
E|---------------------------------------------------------------------------|

e|-3--------3--------3--------3---7-8-7-5-7--8-7-5-7--8-7-5-7-8--8-10-11--8--|
B|---6-4-6----6-4-6----6-4-6-------------------------------------------------|
G|---------------------------------------------------------------------------|
D|---------------------------------------------------------------------------|
A|---------------------------------------------------------------------------|
E|---------------------------------------------------------------------------|

e|-15--11--------------------------------------------------------------------|
B|---------------------------------------------------------------------------|
G|---------------------------------------------------------------------------|
D|---------------------------------------------------------------------------|
A|---------------------------------------------------------------------------|
E|---------------------------------------------------------------------------|