Misc Soundtrack - Legends Of The Fall Chords & Tabs

 

Legends Of The Fall Chords & Tabs

Misc Soundtrack Chords & Tabs

Version: 1 Type: Tab 0 ratings
1 star 2 stars 3 stars 4 stars 5 stars
comments

Legends Of The Fall Tab

The Ludlows  
-from Legends of the Fall Soundtrack
-by James Horner


e:|----5------------------|---------------------|
B:|------8-7-----8-7-5----|-----5-7h--5---------|
G:|------------7---------:|:--7---------7------:|
D:|-7---------------------|----------------9----|
A:|-----------------------|---------------------|
E:|-----------------------|---------------------|
   As evening fell, a maiden stood,at the edge of the

e:|-----------------------|----------------------|
B:|-----------------------|----------------------|
G:|-7--------------------:|:---------------6----:|
D:|---9-7---9-7-5---------|------5--7--9---------|
A:|-----------------------|---9------------------|
E:|-----------------------|----------------------|
    wood. In her hands lay the reins of a stal-lion

e:|----5-----------5--7h--|-5--------------------|
B:|------8-7-----7--------|---7--5---7-5----5-7--|
G:|------------7---------:|:--------------7-----:|
D:|-7---------------------|----------------------|
A:|-----------------------|----------------------|
E:|-----------------------|----------------------|
   and ne're i'd seen a girl as fair, with no gentler voice anywhere
[ Tab from: http://www.guitartabs.cc/tabs/m/misc_soundtrack/legends_of_the_fall_tab.html ]
e:|-----------------------|----------------------|
B:|7-8t-(7)--5------------|----------------------|
G:|-------------7--------:|:--------------------:|
D:|------------------9----|-7-5-----------7------|
A:|-----------------------|-----9---5-5-9--------|
E:|-----------------------|----------------------|
   wispered alas, she belonged, belonged to


e:|-----------------------|----------------------|
B:|-----------------------|----------------------|
G:|-5----5---------------:|:---------5-----5----:|
D:|---9----9--7--5--7-----|--------7---9-----9---|
A:|-----------------------|--5-5-9---------------|
E:|-----------------------|----------------------|

   another, another forever. Yes she belonged to the twilight

e:|----------------------|
B:|----------------------|
G:|---------------------:|
D:|-7--5--7--------------|
A:|----------------------|
E:|----------------------|
    and mist.

  
Legend:
(h) == delay for about a quarter count then tap and hold the note so it sounds like sliding.
(t) == tap. Just tap the note


Note:
You can scale the above keys anywhere in the guitar to suit your voice pitch.
The notes above are based on the track, "The Ludlows" in the Legends of the Fall Soundtrack. 
I should've hit all the right notes but i'm open to changes.Nobody's perfect ya know? :)


tabbed by : Daren Lam (daren_lam@yahoo.com)
20041103
Comments