Misc Soundtrack - Last Waltz Theme Chords & Tabs

 

Last Waltz Theme Chords & Tabs

Misc Soundtrack Chords & Tabs

Version: 1 Type: Tab 0 ratings
1 star 2 stars 3 stars 4 stars 5 stars
comments

Last Waltz Theme Tab

Theme From The Last Waltz
By J.R. Robertson
Tabbed by Ian (ickis@netnet.net)


Standard Tuning

PART ONE

E-----0--2--4------4h5--4--2-4--2--0-------0--7/4-4-4h5-4--2--4-2-1--0-2-4-5
B---------------------------------------------------------------------------
G---------------------------------------------------------------------------
D---------------------------------------------------------------------------
A---------------------------------------------------------------------------
E---------------------------------------------------------------------------

E--9--12--10-9--7--10-9-7-5/0---7-9-10-12--4-5-----------
B--------------------------------------------------------
G--------------------------------------------------------
D--------------------------------------------------------
A--------------------------------------------------------
E--------------------------------------------------------

PART TWO

E--9-7-9-0--12-11-10---7-5-7-0--14-13-12--9-7-9--12/--10--14--7-10
B-----------------------------------------------------------------
G-----------------------------------------------------------------
D-----------------------------------------------------------------
A-----------------------------------------------------------------
E-----------------------------------------------------------------

E--14--12--10-5-4-2-1-0-------
B-----------------------------
G-----------------------------
D-----------------------------
A-----------------------------
E-----------------------------

PART THREE



E------------------------------------------------------------------------
B--7-5-7-0--12-10-9--9-7-9-0--12-10-9--7-5-7-0--12-10-9-10h12-14-10h12-14
G------------------------------------------------------------------------
D------------------------------------------------------------------------
A------------------------------------------------------------------------
E------------------------------------------------------------------------
[ Tab from: http://www.guitartabs.cc/tabs/m/misc_soundtrack/last_waltz_theme_tab.html ]
E--------------
B--10h12-14----
G--------------
D--------------
A--------------
E--------------


PART FOUR

Repeat PART TWO with tremelo.


PART FIVE


E-----------5---5-----------5-5--------------------------------
B-2-4-5/7--7--7--5h7--7-5-7-5--4h5-7-7-5-4-3h4-5-5-4-3-2h4-2h4-
G--------------------------------------------------------------
D--------------------------------------------------------------
A--------------------------------------------------------------
E--------------------------------------------------------------

E--------------5-5-----------------------------------------
B--5-7-5-7-5h7----5-4-4h5-4h5-9-7-5-12-9-7-5--2-9-12-7-9-10
G----------------------------------------------------------
D----------------------------------------------------------
A----------------------------------------------------------
E----------------------------------------------------------


PART SIX (Robbie plays this quite quickly so I kind of ďadaptĒ it.)


E-10/ -0--12-10/-0-12-10/-0--12--10/-12-10-10-9
B----------------------------------------------------------
G----------------------------------------------------------
D----------------------------------------------------------
A----------------------------------------------------------
E----------------------------------------------------------


PART SEVEN(same as part one except right after the 7-10-9- part you play this)

E--7--9-10-12----9-10-12-14------10-12-14-16--12--17-------
B----------------------------------------------------------
G----------------------------------------------------------
D----------------------------------------------------------
A----------------------------------------------------------
E----------------------------------------------------------



I believe this is a pretty accurate tab save PARTíS FIVE AND FOUR. Here you have it...
THE LAST WALTZ

By the way... in parts one,two, three, and five, the space inbetween the 1st and 2nd or 
the 2nd and 3rd is because when I pasted this i did my best to fix it but it just didn't 
come out right. Sorry! 
Comments