Misc Soundtrack - Knight Rider Theme Chords & Tabs

 

Knight Rider Theme Chords & Tabs

Misc Soundtrack Chords & Tabs

Version: 1 Type: Tab 0 ratings
1 star 2 stars 3 stars 4 stars 5 stars
comments

Knight Rider Theme Tab

Here is the Knightrider Theme from the old TV show with
David Hasselhofff and the talking car K.I.T.T. Cool show
awesome song. These are main guitar riffs, just listen to
the song and pick really fast. There is a sweet bass in
the background, but I haven't tabbed it yet, it ain't hard
though. There is some 80's style keyboard in the background
but im not even gonna try to tab that stuff.

[ Tab from: http://www.guitartabs.cc/tabs/m/misc_soundtrack/knight_rider_theme_tab.html ]
E||------------------|--0--1-0-0--0-0-1-0-0-0---0-0-0-|
B||------------------|------------------------4-------|
G||------------------|--------------------------------|
D||------------------|--------------------------------|
A||------------------|--------------------------------|
E||------------------|--------------------------------|

e--0--1-0-0--1-0-1-0-0-0---0-0-0-|
b------------------------4-------|
g--------------------------------|
d--------------------------------|
a--------------------------------|
E--------------------------------|

e---------------------------------|
b--3--4-3-3--3-3-4-3-3-3-2-3-3-3--|
g---------------------------------|
d---------------------------------|
a---------------------------------|
E---------------------------------|


I requested this tab, but no one heard my cry. SO I DID IT MYSELF.
I think the Knightrider Theme is a good edition to GTU.

-Dizzycowmaster
Comments