Misc Soundtrack - King Of The Hill Theme Chords & Tabs

 

King Of The Hill Theme Chords & Tabs

Misc Soundtrack Chords & Tabs

Version: 9 Type: Tab 0 ratings
1 star 2 stars 3 stars 4 stars 5 stars
comments

King Of The Hill Theme Tab

Intro, calm slow feel
e---0-0-----------|
B---2-2---0-------|
G---2-2---1-------|
D---2-2---2-------|
A-0-------2-------|
E-------0---------|
(add distortion)
e----------------------------------|
B----------------------------------|
G----------------------------------|
D-----------------------------6-4--|
A-2-2-2-2-2-6-2-2-2-2-7-7-7-7-4-2--|
E-0-0-0-0-0-4-0-0-0-0-5-5-5-5------|

e----------------------------------|
B----------------------------------|
G----------------------------------|
D----------------------------------|
A-2-2-2-2-2-6-2-2-2-2-7-7-7-7-6-4--|
E-0-0-0-0-0-4-0-0-0-0-5-5-5-5-4-2--|
[ Tab from: http://www.guitartabs.cc/tabs/m/misc_soundtrack/king_of_the_hill_theme_tab_ver_9.html ]
e---------------------------------------------------------|
B---------------------------------------------------------|
G---------------------------------------------------------|
D-----------------------------6-4---99-66-44--------------|
A-2-2-2-2-2-6-2-2-2-2-7-7-7-7-4-2---77-44-22-55-44-44--0--|
E-0-0-0-0-0-4-0-0-0-0-5-5-5-5----------------77-66-22--0--|
                                                       /\shuffle the 00 a couple times

e-------------------------------------------------------|
B-------------------------------------------------------|
G-6666--------------------------------------------------|
D-6666-6666-77777-99-77-66-44---------------------------|
A-4444-6666-77777-99-77-66-44---------------------------|
E------4444-55555-77-55-44-22---------------------------|

e----------------------------------|
B----------------------------------|
G----------------------------------|
D-----------------------------6-4--|
A-2-2-2-2-2-6-2-2-2-2-7-7-7-7-4-2--|
E-0-0-0-0-0-4-0-0-0-0-5-5-5-5------|

e-------------------------------------------|
B-------------------------------------------|
G-------------------------------------------|
D-99-66-44---------------2-2----------------|
A-77-44-22-77-66-44-0----2-2----------------|
E----------55-44-22-0----0-0----------------|

Im sure thats correct, or at least very close.
Comments