Misc Soundtrack - King Of The Hill Theme Chords & Tabs

 

King Of The Hill Theme Chords & Tabs

Misc Soundtrack Chords & Tabs

Version: 5 Type: Tab 0 ratings
1 star 2 stars 3 stars 4 stars 5 stars
comments

King Of The Hill Theme Tab

   
E---0-0---0-------------------------------------------------------------------
B---2-2---0-------------------------------------------------------------------
G---2-2---1-------------------------------------------------------------------
D---2-2---2-------------------------------------------------------------------
A---0-0---2-----------------------0-0-0-4-2---------------------0-0-----------
E-0----0-----0-0-0-0-0-4-0-0-0-0-----------0-0-0-0-0-4-0-0-0-0-----4-4-2-2-4-2
[ Tab from: http://www.guitartabs.cc/tabs/m/misc_soundtrack/king_of_the_hill_theme_tab_ver_5.html ]
E------------------------------------------------------------
B------------------------------------------------------------
G------------------------------------------------------------
D-------------------------------2-2--------------------------
A---------------------0-0-0-4-2-----4-4-2-2-0-0-----0--------
E-0-0-0-0-0-4-0-0-0-0---------------------------4-4---2-0-0-0

E------------------------------------------------
B------------------------------------------------
G-6-6-6-6-------------------------6-6-6-6--------
D-6-6-6-6-6-6-6-6-7-7-7-7-9-9-9-9-6-6-6-6-6-6-6-6
A-4-4-4-4-6-6-6-6-7-7-7-7-9-9-9-9-4-4-4-4-6-6-6-6
E---------4-4-4-4-5-5-5-5-7-7-7-7---------4-4-4-4

E--------------------------------------------------------
B--------------------------------------------------------
G--------------------------------------------------------
D-----------------------------2-2------------------------
A-------------------0-0-0-4-2-----4-4-2-2-0-0-----0---2-2
E-0-0-0-0-0-4-0-0-0---------------------------4-4---2-0-0

I hope it's right, It's my first tab that's how the song sounds anyways,
Sorry if it's not perfect atleast i tried right?
Comments