Misc Soundtrack - King Of The Hill Theme Chords & Tabs

 

King Of The Hill Theme Chords & Tabs

Misc Soundtrack Chords & Tabs

Version: 3 Type: Tab 0 ratings
1 star 2 stars 3 stars 4 stars 5 stars
comments

King Of The Hill Theme Tab

The king of the thill theme song:


The other tabs ive seen for this sound good, but not good enough. If you have any problems
with it email dragfish2@hotmail.com and please dont request songs.

its in standard tuning


beginning:

e---------------------------------------------------------------------
B---------------------------------------------------------------------
G---------------------------------------------------------------------
D---------------------------------------------------------------------
A-2--2--2--2-2-2-6--2--2-2-2-2-7-7-7--4--2----------------------------
E-0--0--0--0-0-0-4--0--0-0-0-0-5-5-5----------------------------------


e---------------------------------------------------------------------
B---------------------------------------------------------------------
G---------------------------------------------------------------------
D---------------------------------------------------------------------
A-2--2--2--2-2-2-6--2--2-2-2-2-7-7-7---7--6--4--6--4------------------
E-0--0--0--0-0-0-4--0--0-0-0-0-5-5-5---5--4--2--4--2------------------


e---------------------------------------------------------------------
B---------------------------------------------------------------------
G---------------------------------------------------------------------
D---------------------------------------------------------------------
A-2--2--2--2-2-2-6--2--2-2-2-2-7-7-7--4--2----------------------------
E-0--0--0--0-0-0-4--0--0-0-0-0-5-5-5----------------------------------

[ Tab from: http://www.guitartabs.cc/tabs/m/misc_soundtrack/king_of_the_hill_theme_tab_ver_3.html ]
e-------------------------------0-------------------------------------
B-------------------------------0-------------------------------------
G-------------------------------9-------------------------------------
D--9----------------------------9-------------------------------------
A--7--11--9--7--6-6-6-7-6-6-2-----------------------------------------
E------9--7--5--4-4-4-5-4-4-0-----------------------------------------


middle part:

e---------------------------------------------------------------------
B---------------------------------------------------------------------
G--6--6--6--6---------------------------------------------------------
D--6--6--6--6--6--6--6--6---------------------------------------------
A--4--4--4--4--6--6--6--6--7-7-7-7-7-7-7-7-9-9-9-9-9-9-9-9------------
E--------------4--4--4--4--5-5-5-5-5-5-5-5-7-7-7-7-7-7-7-7------------



ending:

e---------------------------------------------------------------------
B---------------------------------------------------------------------
G---------------------------------------------------------------------
D---------------------------------------------------------------------
A-2--2--2--2-2-2-6--2--2-2-2-2-7-7-7--4--2----------------------------
E-0--0--0--0-0-0-4--0--0-0-0-0-5-5-5----------------------------------



e-------------------------------0-------------------------------------
B-------------------------------0-------------------------------------
G-------------------------------9-------------------------------------
D--9----------------------------9-------------------------------------
A--7--11--9--7--6-6-6-7-6-6-2-----------------------------------------
E------9--7--5--4-4-4-5-4-4-0-----------------------------------------



theres also a solo that goes with the middle part but im to lazy to tab it so if you decide to
do it, please send it to me.
Comments